» » »

Starting Line, Stay Where I Can See You Tabs (ver.1)

Artists:  A B C D E F G H I J K L M N O P Q R S T U V W X Y Z # 

Stay Where I Can See You Tabs (ver.1)

Starting Line Tabs
 Rating:
4/5 (4 votes)
Stay Where I Can See You lessons Tabs too difficult? Try these video lessons and learn fast
1
                -------------------------------------------------------------------------------
			     STAY WHERE I CAN SEE YOU - The Starting Line
-------------------------------------------------------------------------------

This song wasn't easy to tab cuz it jumps around a lot. Just follow along with the song
to find the strumming and where the notes go, and you shouldn't have any problems. I
believe all these chords are correct, if not... it still sounds good, so I don't care



Tuning: Standard 

Intro/Verse 
This is the nice little guitar part at the beginning that runs 'til the prechorus while the bass plays.
Guitar Riff "A"
e|-----------------------------------------|
B|-------14/12---------12------------------|
G|---14---------14--------14---------------|
D|------------------14---------------------|  Repeat X6
A|-----------------------------------------|
E|-----------------------------------------|

Guitar Riff "B"
e|-----------------------------------------|
B|-------12/10----------10-----------------|
G|---11---------11---9-----11--------------|
D|-----------------------------------------| Repeat X2
A|-----------------------------------------|
E|-----------------------------------------|

REPEAT "A" x2
REPEAT "B" x2

Pre-Chorus
     Just.. 	 Stay..
e|-----------------------------------------|
B|-----------------------------------------|
G|--7------------7-------------------------|
D|--7------------7-------------------------| 
A|--5------------5-------------------------|
E|-----------------------------------------|

Chorus
  Go	     a	      way	 Lo   ..oo    ..ow
e|--------------------------------------------------------------------------|
B|--------------------------------------------------------------------------|
G|--------------------------------------------------------------------------|
D|-7----------7--------4---------4-------2------4---------------------------|
A|-7----------7--------4---------4-------2------4---------------------------|
E|-5----------4--------2---------2-------0------2---------------------------|


   Temp.   their   coldest.  When u 	    Go	 a    way    lone  ly
e|---------------------------------------------------------------------------|
B|---------------------------------------------------------------------------|
G|--7---------------------------------------------------------6--------------|
D|------------7------2----------------------7----------2------6----4---------|
A|--5---------7------2----------------------7----------2------4----4---------|
E|------------5------0----------------------5----------0-----------2---------|


And im...   stranded/standing(not sure what Kenny's saying)  side 
e|---------------------------------------------------------------------------|
B|---------------------------------------------------------------------------|
G|-----------7---------------------------------------------------------------|
D|-----------7----------------------------------------------2----------------|
A|-----------5----------------------------------------------2----------------|
E|----------------------------------------------------------0----------------|


REPEAT "A" x4
REPEAT "B" x2
REPEAT "A" x2
REPEAT "B" x2
 
Then like a fake prechorus when Kenny says "Just stay right where I can be.."
e|------------------------------------------|
B|------------------------------------------|
G|------------------------------------------|
D|--------7---------------------------------|
A|--------7---------------------------------|
E|--------5---------------------------------|

REPEAT "A" x2
REPEAT "B" x2
CHORUS

*Bridge*
Play this chord for like ever        		 ..see you
e|----------------------------------------------------------------|
B|----------------------------------------------------------------|
G|---------------------------------4--------6---------------------|
D|---7-----------------------------4--------6-----2---------------|
A|---7-----------------------------2--------4-----2---------------|
E|---5--------------------------------------------0---------------|

CHORUS (no distortion at beginning, comes in halfway through)
REPEAT CHORUS til end

Thats it. Enjoy
-------------------------------------------------------------------------------
| /  slide up
| \  slide down
| h  hammer-on
| p  pull-off
| ~  vibrato
| +  harmonic
| x  Mute note
===============================================================================
            
Submit corrections

comments powered by Disqus
↑ Back to top | Starting Line Tabs for Stay Where I Can See You. Lyrics for acoustic guitar and electric guitar. 1 Tablatures and chords are parodies/interpretations of the original songs. You may use it for private study, scholarship, research or language learning purposes only