>
 >
Lasting Impressions

Lasting Impressions Guitar Tabs

Starting Line - Lasting Impressions chords, tabs, tablatures, lyrics

Guitar lessons | Add/correct | Request | Top 50 tabs Artists:  A B C D E F G H I J K L M N O P Q R S T U V W X Y Z 0-9

Lasting Impressions Guitar Tabs – Starting Line

CD, Sheet music, Poster

Do you like Lasting Impressions? Share with your friends now
Tabs
The Starting Line - Lasting Impressions

Make Yourself At Home EP


Guitar 1

          ill wait till the clock strikes a nerve to
e[-----------------------------------------------|
B[-----------------------------------------------|
G[--6-----6--4~-------------6-----6--4~----------|
D[-----4-----------------------4-----------------|
A[-----------------------------------------------|
E[-----------------------------------------------|
  spend some time with     you
e[-----------------------------------------------|
B[-----------------------------------------------|
G[--------6--------------------------------------|
D[-----4-----4~------2-----------1---------------|
A[--6--------------4----------2-----2~-----------|
E[-------------------------0---------------------|
    i cant stand to      de-pend on the shadow i
e[-------------------------------------------------|
B[-------------------------------------------------|
G[--6-----6--4~-------------6-----6--4~------------|
D[-----4-----------------------4-------------------|
A[-------------------------------------------------|
E[-------------------------------------------------|
   cast  alone when  we    should
e[-----------------------------------------------|
B[-----------------------------------------------|
G[--------6--------------------------------------|
D[-----4-----4~------2-----------1---------------|
A[--6--------------4----------2-----2~-----------|
E[-------------------------0---------------------|
      for the sake     of  making a statement    let\'s
e[-----------------------------------------------|
B[-----------------------------------------------|
G[--6-----6--4~-------------6-----6--4~----------|
D[-----4-----------------------4-----------------|
A[-----------------------------------------------|
E[-----------------------------------------------|
    make out our presence  known         let\'s show them
e[------------------------------------------------|
B[------------------------------------------------|
G[--------6---------------------------------------|
D[-----4-----4~------2-----------1-------------2~-|
A[--6--------------4----------2-----2~------2--2~-|
E[-------------------------0-------------0-----0~-|
   what we\'re made of

   we\'ll show up in......planned ahead to meet the
e[---------------------------------------------|
B[---------------------------------------------|
G[---------------------------------------------|
D[-4-4-4-4-4-4-4-4-4-4-4-2-2-2-2-2-2-2-2-2-2-2-|
A[-2-2-2-2-2-2-2-2-2-2-2-2-2-2-2-2-2-2-2-2-2-2-|
E[-4-4-4-4-4-4-4-4-4-4-4-0-0-0-0-0-0-0-0-0-0-0-|
   qualifications for a special occasion
e[-0-0-0-0-0-0-0-0-0-0-0-----------------------|
B[-5-5-5-5-5-5-5-5-5-5-5-----------------------|
G[-6-6-6-6-6-6-6-6-6-6-6-3-3-3-3-3-3-4-4-4-4-4-|
D[-6-6-6-6-6-6-6-6-6-6-6-4-4-4-4-4-4-4-4-4-4-4-|
A[-4-4-4-4-4-4-4-4-4-4-4-1-1-1-1-1-1-2-2-2-2-2-|
E[---------------------------------------------|
   today is your day     today is our day
e[---------------------------------------------|
B[---------------------------------------------|
G[---------------------------------------------|
D[-4-4-4-4-4-4-4-4-4-4-4-2-2-2-2-2-2-2-2-2-2-2-|
A[-2-2-2-2-2-2-2-2-2-2-2-2-2-2-2-2-2-2-2-2-2-2-|
E[-4-4-4-4-4-4-4-4-4-4-4-0-0-0-0-0-0-0-0-0-0-0-|
   making up for....time making a scene   oh yeah
e[-0-0-0-0-0-0-0-0-0-0-0-----------------------|
B[-5-5-5-5-5-5-5-5-5-5-5-----------------------|
G[-6-6-6-6-6-6-6-6-6-6-6-3-3-3-3-3-3-4-4-4-4-4-|
D[-6-6-6-6-6-6-6-6-6-6-6-4-4-4-4-4-4-4-4-4-4-4-|
A[-4-4-4-4-4-4-4-4-4-4-4-1-1-1-1-1-1-2-2-2-2-2-|
E[---------------------------------------------|

e[----------------------------------------------------------------|
B[----------------------------------------------------------------|
G[----------------------------------------------------------------|
D[---4---4---4-------4---4---4------------------------------------|
A[-2---2---2---2x--2---2---2---2x----2---2---2-------2---2---2----|
E[---------------------------------0---0---0---0x--0---0---0---0x-|

e[----------------------------------------------------------------|
B[----------------------------------------------------------------|
G[----------------------------------------------------------------|
D[----------------------------------------------------------------|
A[---2---2---2-------2---2---2-------4---4---4-------4---4---4----|
E[-4---4---4---4x--4---4---4---4x--2---2---2---2x--2---2---2---2x-|
  you\'ve made.........im-pression       and if it
e[-----------------------------------------------|
B[-----------------------------------------------|
G[-4-4-4-4-4-4-4-4-4-4-4-------------------------|
D[-4-4-4-4-4-4-4-4-4-4-4-2-2-2-2-2-2-2-2-2-2-2-2-|
A[-2-2-2-2-2-2-2-2-2-2-2-2-2-2-2-2-2-2-2-2-2-2-2-|
E[-----------------------0-0-0-0-0-0-0-0-0-0-0-0-|
   doesn\'t feel....i just can\'t go    wrong
e[-----------------------------------------------|
B[-----------------------------------------------|
G[-4-4-4-4-4-4-4-4-4-4-4-------------------------|
D[-4-4-4-4-4-4-4-4-4-4-4--4-4x--4-4x--2-2x--2-2x-|
A[-2-2-2-2-2-2-2-2-2-2-2--4-4x--2-2x--2-2x--2-2x-|
E[------------------------2-2x--4-4x--0-0x--0-0x-|
  i\'ve been sleeping.....lights on so       if i
e[-----------------------------------------------|
B[-----------------------------------------------|
G[-4-4-4-4-4-4-4-4-4-4-4-------------------------|
D[-4-4-4-4-4-4-4-4-4-4-4-2-2-2-2-2-2-2-2-2-2-2-2-|
A[-2-2-2-2-2-2-2-2-2-2-2-2-2-2-2-2-2-2-2-2-2-2-2-|
E[-----------------------0-0-0-0-0-0-0-0-0-0-0-0-|
   wake in the night your picture is clearly in site
e[-----------------------------------------------|
B[-----------------------------------------------|
G[-4-4-4-4-4-4-4-4-4-4-4-------------------------|
D[-4-4-4-4-4-4-4-4-4-4-4--4-4x--4-4x--2-2x--2-2x-|
A[-2-2-2-2-2-2-2-2-2-2-2--4-4x--2-2x--2-2x--2-2x-|
E[------------------------2-2x--4-4x--0-0x--0-0x-|

e[-------------------------------------------------------|
B[-------------------------------------------------------|
G[-----4-------4-----------------------------------------|
D[-6-6---6-6-6--------4-------4------2-------2------1----|
A[----------------6-6---6-6-6----4-4---4-4-4----2-2----2-|
E[-------------------------------------------------------|

e[-------------------------------------------------------|
B[-------------------------------------------------------|
G[-----4-------4-----------------------------------------|
D[-6-6---6-6-6--------4-------4------2-------2------1----|
A[----------------6-6---6-6-6----4-4---4-4-4----2-2----2-|
E[-------------------------------------------------------|
   so lets meet at the   mouth for a kiss..been
e[---------------------------------------------|
B[---------------------------------------------|
G[---------------------------------------------|
D[-4-4-4-4-4-4-4-4-4-4-4-2-2-2-2-2-2-2-2-2-2-2-|
A[-2-2-2-2-2-2-2-2-2-2-2-2-2-2-2-2-2-2-2-2-2-2-|
E[-4-4-4-4-4-4-4-4-4-4-4-0-0-0-0-0-0-0-0-0-0-0-|
   so long over due
e[-0-0-0-0-0-0-0-0-0-0-0-----------------------|
B[-5-5-5-5-5-5-5-5-5-5-5-----------------------|
G[-6-6-6-6-6-6-6-6-6-6-6-3-3-3-3-3-3-4-4-4-4-4-|
D[-6-6-6-6-6-6-6-6-6-6-6-x-x-x-x-x-x-x-x-x-x-x-|
A[-4-4-4-4-4-4-4-4-4-4-4-1-1-1-1-1-1-2-2-2-2-2-|
E[---------------------------------------------|
   no thanks to the two thousands of miles and the
e[---------------------------------------------|
B[---------------------------------------------|
G[---------------------------------------------|
D[-4-4-4-4-4-4-4-4-4-4-4-2-2-2-2-2-2-2-2-2-2-2-|
A[-2-2-2-2-2-2-2-2-2-2-2-2-2-2-2-2-2-2-2-2-2-2-|
E[-4-4-4-4-4-4-4-4-4-4-4-0-0-0-0-0-0-0-0-0-0-0-|
   and the touring we.do..it makes me miss you more
e[-0-0-0-0-0-0-0-0-0-0-0----------------|
B[-5-5-5-5-5-5-5-5-5-5-5----------------|
G[-6-6-6-6-6-6-6-6-6-6-6-3-3-3-3-3-3-4~-|
D[-6-6-6-6-6-6-6-6-6-6-6-4-4-4-4-4-4-4~-|
A[-4-4-4-4-4-4-4-4-4-4-4-1-1-1-1-1-1-2~-|
E[--------------------------------------|

  youve made..........im-pression       and if it
e[-----------------------------------------------|
B[-----------------------------------------------|
G[-4-4-4-4-4-4-4-4-4-4-4-------------------------|
D[-4-4-4-4-4-4-4-4-4-4-4-2-2-2-2-2-2-2-2-2-2-2-2-|
A[-2-2-2-2-2-2-2-2-2-2-2-2-2-2-2-2-2-2-2-2-2-2-2-|
E[-----------------------0-0-0-0-0-0-0-0-0-0-0-0-|
   doesn\'t feel....i just can\'t go    wrong
e[-----------------------------------------------|
B[-----------------------------------------------|
G[-4-4-4-4-4-4-4-4-4-4-4-------------------------|
D[-4-4-4-4-4-4-4-4-4-4-4--4-4x--4-4x--2-2x--2-2x-|
A[-2-2-2-2-2-2-2-2-2-2-2--4-4x--2-2x--2-2x--2-2x-|
E[------------------------2-2x--4-4x--0-0x--0-0x-|
  i\'ve been sleeping.....lights on so       if i
e[-----------------------------------------------|
B[-----------------------------------------------|
G[-4-4-4-4-4-4-4-4-4-4-4-------------------------|
D[-4-4-4-4-4-4-4-4-4-4-4-2-2-2-2-2-2-2-2-2-2-2-2-|
A[-2-2-2-2-2-2-2-2-2-2-2-2-2-2-2-2-2-2-2-2-2-2-2-|
E[-----------------------0-0-0-0-0-0-0-0-0-0-0-0-|
   wake in the night your picture is clearly in site
e[-----------------------------------------------|
B[-----------------------------------------------|
G[-4-4-4-4-4-4-4-4-4-4-4-------------------------|
D[-4-4-4-4-4-4-4-4-4-4-4--4-4x--4-4x--2-2x--2-2x-|
A[-2-2-2-2-2-2-2-2-2-2-2--4-4x--2-2x--2-2x--2-2x-|
E[------------------------2-2x--4-4x--0-0x--0-0x-|
         i could explode             cuz..never you never know
e[-------------------------------------------------------------------------|
B[---------------------------------------------------5-5~------------------|
G[---------------------------------------------------6-6~------------------|
D[-2-2~------------4-4~--------------2-2~------------6-6~-6-6-6-6-6-6-6-6--|
A[-2-2~--2-2-2-2-2-2-2~--2-2-2-2-2-2-2-2~--2-2-2-2-2-4-4~-4-4-4-4-4-4-4-4--|
E[-0-0~--0-0-0-0-0-4-4~--4-4-4-4-4-4-0-0~--0-0-0-0-0------.-.-.-.-.-.-.-.--|
         . . . . .       . . . . . .       . . . . .
   it would         suit   the       moment  per--fect--ly
e[-----------------------------------------------------------|
B[-----------------------------------------------------------|
G[-2-2-2-2-2-2-2---2-2-2-2-2-2-2---2-2-2-2-2-----------------|
D[-2-2-2-2-2-2-2---2-2-2-2-2-2-2---2-2-2-2-2-2-2-2-2-2-2-2---|
A[-0-0-0-0-0-0-0---0-0-0-0-0-0-0---0-0-0-0-0-0-0-0-0-0-0-0---|
E[-------------------------------------------.-.-.-.-.-.-.---|
  youve made..........im-pression       and if it
e[-----------------------------------------------|
B[-----------------------------------------------|
G[-4-4-4-4-4-4-4-4-4-4-4-------------------------|
D[-4-4-4-4-4-4-4-4-4-4-4-2-2-2-2-2-2-2-2-2-2-2-2-|
A[-2-2-2-2-2-2-2-2-2-2-2-2-2-2-2-2-2-2-2-2-2-2-2-|
E[-----------------------0-0-0-0-0-0-0-0-0-0-0-0-|
   doesn\'t feel....i just can\'t go    wrong
e[--------------------------------------------------|
B[--------------------------------------------------|
G[-4-4-4-4-4-4-4-4-4-4-4----------------------------|
D[-4-4-4-4-4-4-4-4-4-4-4--4-4x--4-4x----------------|
A[-2-2-2-2-2-2-2-2-2-2-2--4-4x--2-2x--2-2-2-2-2-2-2-|
E[------------------------2-2x--4-4x--0-0-0-0-0-0-0-|
                                      . . . . . . .
  i\'ve been sleeping.....lights on so       if i
e[-----------------------------------------------|
B[-----------------------------------------------|
G[-4-4-4-4-4-4-4-4-4-4-4-------------------------|
D[-4-4-4-4-4-4-4-4-4-4-4-2-2-2-2-2-2-2-2-2-2-2-2-|
A[-2-2-2-2-2-2-2-2-2-2-2-2-2-2-2-2-2-2-2-2-2-2-2-|
E[-----------------------0-0-0-0-0-0-0-0-0-0-0-0-|
   wake in the night your picture is clearly in site
e[-----------------------------------------------|
B[-----------------------------------------------|
G[-4-4-4-4-4-4-4-4-4-4-4-------------------------|
D[-4-4-4-4-4-4-4-4-4-4-4-4-4-4-4-4-4-2-2-2-2-2-2-|
A[-2-2-2-2-2-2-2-2-2-2-2-4-4-4-2-2-2-2-2-2-2-2-2-|
E[-----------------------2-2-2-4-4-4-0-0-0-0-0-0-|
  youve made..........im-pression       and if it
e[-----------------------------------------------|
B[-----------------------------------------------|
G[-4-4-4-4-4-4-4-4-4-4-4-------------------------|
D[-4-4-4-4-4-4-4-4-4-4-4-2-2-2-2-2-2-2-2-2-2-2-2-|
A[-2-2-2-2-2-2-2-2-2-2-2-2-2-2-2-2-2-2-2-2-2-2-2-|
E[-----------------------0-0-0-0-0-0-0-0-0-0-0-0-|
   doesn\'t feel....i just can\'t go    wrong
e[--------------------------------------------------|
B[--------------------------------------------------|
G[-4-4-4-4-4-4-4-4-4-4-4----------------------------|
D[-4-4-4-4-4-4-4-4-4-4-4--4-4x--4-4x----------------|
A[-2-2-2-2-2-2-2-2-2-2-2--4-4x--2-2x--2-2-2-2-2-2-2-|
E[------------------------2-2x--4-4x--0-0-0-0-0-0-0-|
                                      . . . . . . .
  i\'ve been sleeping.....lights on so       if i
e[-----------------------------------------------|
B[-----------------------------------------------|
G[-4-4-4-4-4-4-4-4-4-4-4-------------------------|
D[-4-4-4-4-4-4-4-4-4-4-4-2-2-2-2-2-2-2-2-2-2-2-2-|
A[-2-2-2-2-2-2-2-2-2-2-2-2-2-2-2-2-2-2-2-2-2-2-2-|
E[-----------------------0-0-0-0-0-0-0-0-0-0-0-0-|
   wake in the night your picture is clearly in site
e[-----------------------------------------------|
B[-----------------------------------------------|
G[-4-4-4-4-4-4-4-4-4-4-4-------------------------|
D[-4-4-4-4-4-4-4-4-4-4-4-4-4-4-4-4-4-2-2-2-2-2-2-|
A[-2-2-2-2-2-2-2-2-2-2-2-4-4-4-2-2-2-2-2-2-2-2-2-|
E[-----------------------2-2-2-4-4-4-0-0-0-0-0-0-|
                                                  can\'t go wrong
e[---------------------------------------------------------------|
B[---------------------------------------------------------------|
G[---------------------------------------------------------------|
D[-2-2-2-2-2-2-2--2-2-2-2-2-2-2--2-2-2-2-2-2-2-4-4-4-4-4-4-4-4-4-|
A[-2-2-2-2-2-2-2--2-2-2-2-2-2-2--2-2-2-2-2-2-2-4-4-4-4-4-4-4-4-4-|
E[-0-0-0-0-0-0-0--0-0-0-0-0-0-0--0-0-0-0-0-0-0-2-2-2-2-2-2-2-2-2-|
                                                  can\'t go wrong
e[---------------------------------------------------------------|
B[---------------------------------------------------------------|
G[---------------------------------------------------------------|
D[-2-2-2-2-2-2-2--2-2-2-2-2-2-2--2-2-2-2-2-2-2-4-4-4-4-4-4-4-4-4-|
A[-2-2-2-2-2-2-2--2-2-2-2-2-2-2--2-2-2-2-2-2-2-4-4-4-4-4-4-4-4-4-|
E[-0-0-0-0-0-0-0--0-0-0-0-0-0-0--0-0-0-0-0-0-0-2-2-2-2-2-2-2-2-2-|

e[----------------|
B[----------------|
G[----------------|
D[-2-2-2-2-2-2-2x-|
A[-2-2-2-2-2-2-2x-|
E[-0-0-0-0-0-0-0x-|


Guitar 2

           ill wait till the clock strikes a nerve to
e[----------11--------11--------------11--------11---|
B[--------0----0----0----0----------0----0----0----0-|
G[-8/9h11--------11----------8/9h11--------11--------|
D[---------------------------------------------------|
A[---------------------------------------------------|
E[---------------------------------------------------|
   spend some time with you
e[----------11--------11--------------11--------11---|
B[--------0----0----0----0----------0----0----0----0-|
G[-8/9h11--------11----------8/9h11--------11--------|
D[---------------------------------------------------|
A[---------------------------------------------------|
E[---------------------------------------------------|
   i can\'t stand to depend on the shadow i cast
e[----------11--------11--------------11--------11---|
B[--------0----0----0----0----------0----0----0----0-|
G[-8/9h11--------11----------8/9h11--------11--------|
D[---------------------------------------------------|
A[---------------------------------------------------|
E[---------------------------------------------------|
   alone when we should
e[----------11--------11--------------11--------11---|
B[--------0----0----0----0----------0----0----0----0-|
G[-8/9h11--------11----------8/9h11--------11--------|
D[---------------------------------------------------|
A[---------------------------------------------------|
E[---------------------------------------------------|
            for the sake of making a statement
e[----------11--------11--------------11--------11---|
B[--------0----0----0----0----------0----0----0----0-|
G[-8/9h11--------11----------8/9h11--------11--------|
D[---------------------------------------------------|
A[---------------------------------------------------|
E[---------------------------------------------------|
   let\'s make our presence known               let\'s show
e[----------11--------11--------------11--------11--------|
B[--------0----0----0----0----------0----0----0----0---0~-|
G[-8/9h11--------11----------8/9h11--------11---------11~-|
D[--------------------------------------------------------|
A[--------------------------------------------------------|
E[--------------------------------------------------------|
  them what we\'re made of

   we\'ll show up in our outfits we planned ahead to meet the
e[----------11--------11--------------11--------11---|
B[--------0----0----0----0----------0----0----0----0-|
G[-8/9h11--------11----------8/9h11--------11--------|
D[---------------------------------------------------|
A[---------------------------------------------------|
E[---------------------------------------------------|
   qualifications for a special occasion
e[----------11--------11--------------11--------11---|
B[--------0----0----0----0----------0----0----0----0-|
G[-8/9h11--------11----------8/9h11--------11--------|
D[---------------------------------------------------|
A[---------------------------------------------------|
E[---------------------------------------------------|
  today is your day, today is our day
e[----------11--------11--------------11--------11---|
B[--------0----0----0----0----------0----0----0----0-|
G[-8/9h11--------11----------8/9h11--------11--------|
D[---------------------------------------------------|
A[---------------------------------------------------|
E[---------------------------------------------------|
   making up for lost time making a scene         oh yeah
e[----------11--------11--------------11--------11---|
B[--------0----0----0----0----------0----0----0----0-|
G[-8/9h11--------11----------8/9h11--------11--------|
D[---------------------------------------------------|
A[---------------------------------------------------|
E[---------------------------------------------------|

e[--------11------11x---------11------11x--------9-------9x---------9------9x-|
B[-0----0----0---------0----0----0---------0----0---0--------0----0---0-------|
G[---11--------11--------11--------11--------11-------11-------11-------11----|
D[----------------------------------------------------------------------------|
A[----------------------------------------------------------------------------|
E[----------------------------------------------------------------------------|

e[--------11------11x---------11------11x--------9-------9x---------9------9x-|
B[-0----0----0---------0----0----0---------0----0---0--------0----0---0-------|
G[---11--------11--------11--------11--------11-------11-------11-------11----|
D[----------------------------------------------------------------------------|
A[----------------------------------------------------------------------------|
E[----------------------------------------------------------------------------|

  you\'ve made.........im-pression       and if it
e[-----------------------------------------------|
B[-----------------------------------------------|
G[-4-4-4-4-4-4-4-4-4-4-4-------------------------|
D[-4-4-4-4-4-4-4-4-4-4-4-2-2-2-2-2-2-2-2-2-2-2-2-|
A[-2-2-2-2-2-2-2-2-2-2-2-2-2-2-2-2-2-2-2-2-2-2-2-|
E[-----------------------0-0-0-0-0-0-0-0-0-0-0-0-|
   doesn\'t feel....i just can\'t go    wrong
e[-----------------------------------------------|
B[-----------------------------------------------|
G[-4-4-4-4-4-4-4-4-4-4-4-------------------------|
D[-4-4-4-4-4-4-4-4-4-4-4--4-4x--4-4x--2-2x--2-2x-|
A[-2-2-2-2-2-2-2-2-2-2-2--4-4x--2-2x--2-2x--2-2x-|
E[------------------------2-2x--4-4x--0-0x--0-0x-|
  i\'ve been sleeping.....lights on so       if i
e[-----------------------------------------------|
B[-----------------------------------------------|
G[-4-4-4-4-4-4-4-4-4-4-4-------------------------|
D[-4-4-4-4-4-4-4-4-4-4-4-2-2-2-2-2-2-2-2-2-2-2-2-|
A[-2-2-2-2-2-2-2-2-2-2-2-2-2-2-2-2-2-2-2-2-2-2-2-|
E[-----------------------0-0-0-0-0-0-0-0-0-0-0-0-|
   wake in the night your picture is clearly in site
e[-----------------------------------------------|
B[-----------------------------------------------|
G[-4-4-4-4-4-4-4-4-4-4-4-------------------------|
D[-4-4-4-4-4-4-4-4-4-4-4--4-4x--4-4x--2-2x--2-2x-|
A[-2-2-2-2-2-2-2-2-2-2-2--4-4x--2-2x--2-2x--2-2x-|
E[------------------------2-2x--4-4x--0-0x--0-0x-|

e[----------------------------------------------------------|
B[----------------------------------------------------------|
G[----------------------------------------------------------|
D[--------------------9--------9-------6-------6------4--4--|
A[-----6-------6--6-6---6-6-6-----4-4---4-4-4----2-2--------|
E[-4-4---4-4-4----------------------------------------------|

e[-------------------------------------------------------|
B[-------------------------------------------------------|
G[--------------------4-------4--------------------------|
D[----------------1-1---1-1-1--------6-------6------4----|
A[-----6-------6-----------------4-4---4-4-4----2-2----2-|
E[-4-4---4-4-4-------------------------------------------|
   so lets meet at the   mouth for a kiss..been
e[---------------------------------------------|
B[---------------------------------------------|
G[---------------------------------------------|
D[-4-4-4-4-4-4-4-4-4-4-4-2-2-2-2-2-2-2-2-2-2-2-|
A[-2-2-2-2-2-2-2-2-2-2-2-2-2-2-2-2-2-2-2-2-2-2-|
E[-4-4-4-4-4-4-4-4-4-4-4-0-0-0-0-0-0-0-0-0-0-0-|
   so long over due
e[-0-0-0-0-0-0-0-0-0-0-0-----------------------|
B[-5-5-5-5-5-5-5-5-5-5-5-----------------------|
G[-6-6-6-6-6-6-6-6-6-6-6-3-3-3-3-3-3-4-4-4-4-4-|
D[-6-6-6-6-6-6-6-6-6-6-6-4-4-4-4-4-4-4-4-4-4-4-|
A[-4-4-4-4-4-4-4-4-4-4-4-1-1-1-1-1-1-2-2-2-2-2-|
E[---------------------------------------------|
   no thanks to the two thousands of miles and the
e[---------------------------------------------|
B[---------------------------------------------|
G[---------------------------------------------|
D[-4-4-4-4-4-4-4-4-4-4-4-2-2-2-2-2-2-2-2-2-2-2-|
A[-2-2-2-2-2-2-2-2-2-2-2-2-2-2-2-2-2-2-2-2-2-2-|
E[-4-4-4-4-4-4-4-4-4-4-4-0-0-0-0-0-0-0-0-0-0-0-|
   and the touring we.do..it makes me miss you more
e[-0-0-0-0-0-0-0-0-0-0-0----------------|
B[-5-5-5-5-5-5-5-5-5-5-5----------------|
G[-6-6-6-6-6-6-6-6-6-6-6-3-3-3-3-3-3-4~-|
D[-6-6-6-6-6-6-6-6-6-6-6-4-4-4-4-4-4-4~-|
A[-4-4-4-4-4-4-4-4-4-4-4-1-1-1-1-1-1-2~-|
E[--------------------------------------|
  youve made a lasting.-pression and if it
e[------11--------11---------9--------9---|
B[----0----0----0----0-----0---0----0---0-|
G[-11--------11---------11-------11-------|
D[----------------------------------------|
A[----------------------------------------|
E[----------------------------------------|
   doesn\'t feel right then i just can\'t go wrong
e[------11--------11---------11--------9----|
B[----0----0----0----0-----0----0----0---0--|
G[-11--------11---------11--------11--------|
D[------------------------------------------|
A[------------------------------------------|
E[------------------------------------------|
  i\'ve been sleepin with the lights on so if i
e[------11--------11---------9--------9---|
B[----0----0----0----0-----0---0----0---0-|
G[-11--------11---------11-------11-------|
D[----------------------------------------|
A[----------------------------------------|
E[----------------------------------------|
   wake in the night, your picture is clearly in site
e[------11--------11---------11--------9----|
B[----0----0----0----0-----0----0----0---0--|
G[-11--------11---------11--------11--------|
D[------------------------------------------|
A[------------------------------------------|
E[------------------------------------------|
        i could explode             cuz..never you never know
e[-------------------------------------------------------------------------|
B[---------------------------------------------------5-5~------------------|
G[---------------------------------------------------6-6~------------------|
D[-2-2~------------4-4~--------------2-2~------------6-6~-6-6-6-6-6-6-6-6--|
A[-2-2~--2-2-2-2-2-2-2~--2-2-2-2-2-2-2-2~--2-2-2-2-2-4-4~-4-4-4-4-4-4-4-4--|
E[-0-0~--0-0-0-0-0-4-4~--4-4-4-4-4-4-0-0~--0-0-0-0-0------.-.-.-.-.-.-.-.--|
         . . . . .       . . . . . .       . . . . .
   it would         suit   the       moment  per--fect--ly
e[-----------------------------------------------------------|
B[-----------------------------------------------------------|
G[-2-2-2-2-2-2-2---2-2-2-2-2-2-2---2-2-2-2-2-----------------|
D[-2-2-2-2-2-2-2---2-2-2-2-2-2-2---2-2-2-2-2-2-2-2-2-2-2-2---|
A[-0-0-0-0-0-0-0---0-0-0-0-0-0-0---0-0-0-0-0-0-0-0-0-0-0-0---|
E[-------------------------------------------.-.-.-.-.-.-.---|
 youve made a lasting.-pression and if it
e[------11--------11---------9--------9---|
B[----0----0----0----0-----0---0----0---0-|
G[-11--------11---------11-------11-------|
D[----------------------------------------|
A[----------------------------------------|
E[----------------------------------------|
   doesn\'t feel right then i just can\'t go wrong
e[------11--------11---------11--------9----|
B[----0----0----0----0-----0----0----0---0--|
G[-11--------11---------11--------11--------|
D[------------------------------------------|
A[------------------------------------------|
E[------------------------------------------|
  i\'ve been sleepin with the lights on so if i
e[------11--------11---------9--------9---|
B[----0----0----0----0-----0---0----0---0-|
G[-11--------11---------11-------11-------|
D[----------------------------------------|
A[----------------------------------------|
E[----------------------------------------|
   wake in the night, your picture is clearly in site
e[------11--------11---------11--------9----|
B[----0----0----0----0-----0----0----0---0--|
G[-11--------11---------11--------11--------|
D[------------------------------------------|
A[------------------------------------------|
E[------------------------------------------|
 youve made a lasting.-pression and if it
e[------11--------11---------9--------9---|
B[----0----0----0----0-----0---0----0---0-|
G[-11--------11---------11-------11-------|
D[----------------------------------------|
A[----------------------------------------|
E[----------------------------------------|
   doesn\'t feel right then i just can\'t go wrong
e[------11--------11---------11--------9----|
B[----0----0----0----0-----0----0----0---0--|
G[-11--------11---------11--------11--------|
D[------------------------------------------|
A[------------------------------------------|
E[------------------------------------------|
  i\'ve been sleepin with the lights on so if i
e[------11--------11---------9--------9---|
B[----0----0----0----0-----0---0----0---0-|
G[-11--------11---------11-------11-------|
D[----------------------------------------|
A[----------------------------------------|
E[----------------------------------------|
   wake in the night, your picture is clearly in site
e[------11--------11---------11--------9----|
B[----0----0----0----0-----0----0----0---0--|
G[-11--------11---------11--------11--------|
D[------------------------------------------|
A[------------------------------------------|
E[------------------------------------------|
                                                       can\'t go wrong
e[--------9------9x---------9------9x---------9------9x-------11---------11---|
B[-0----0---0--------0----0---0--------0----0---0--------0----------0---------|
G[---11-------11-------11-------11-------11-------11-------11----11---11---11-|
D[----------------------------------------------------------------------------|
A[----------------------------------------------------------------------------|
E[----------------------------------------------------------------------------|
                                                       can\'t go wrong
e[--------9------9x---------9------9x---------9------9x-------11---------11----|
B[-0----0---0--------0----0---0--------0----0---0--------0----------0----------|
G[---11-------11-------11-------11-------11-------11-------11----11---11---11--|
D[-----------------------------------------------------------------------------|
A[-----------------------------------------------------------------------------|
E[-----------------------------------------------------------------------------|

e[--------9------9x-|
B[-0----0---0-------|
G[---11-------11----|
D[------------------|
A[------------------|
E[------------------|





Comments


Popular Starting Line tabs & chords
Inspired By The $ Bass Tabs
Stay Where I Can See You 2 Bass Tabs
The Best Of Me 3 Bass Tabs
Up & Go 1 Bass Tabs
Best Of Me 2 Tabs
Make Yourself At Home Tabs
Piano Song 1 Tabs
Need To Love Ukulele
Somebodys Gonna Miss Us Ukulele
Surprise Surprise Ukulele


Song lyrics



↑ Back to top | Tablatures and chords are parodies/interpretations of the original songs. You may use it for private study, scholarship, research or language learning purposes only
© 2014 AZChords.com Contact us | Privacy policy | DMCA | Add/correct tabs | Request tabs | Top 50 tabs