» » »

A Goodnight's Sleep Tabs (ver.1)

Artists:  A B C D E F G H I J K L M N O P Q R S T U V W X Y Z # 

A Goodnight's Sleep Tabs (ver.1)

Starting Line
Rating:
0/5 (0 votes)

Hard to play? Try these video lessons and learn fast.
                Intro: Play it 10 times
e|-4---4-----4--4-----4-----------------------------------|
B|--5----5-------5-----5----------------------------------|
G|---4-----4-------4-----4--------------------------------|
D|--------------------------------------------------------|
A|--------------------------------------------------------|
E|--------------------------------------------------------|

After Intro
e|--------------------------------------------------------|
B|--------------------------------------------------------|
G|--1-1-2h1---------------1-1-2h1---------4-4-4--1-1-2h1--|
D|----------4-2-2-2-2-2-2---------4-2-2-2-----------------|
A|--------------------------------------------------------|
E|--------------------------------------------------------|

After Intro cont’d
e|--------------------------------------------------------|
B|--------------------------------------------------------|
G|--------------------------------------------------------|
D|--4-2-2-2-4-2-2-2-2-4-6-7-9-----------------------------|
A|--------------------------------------------------------|
E|--------------------------------------------------------|

Verse:2x
e|--------------------------------------------------------|
B|--------------------------------------------------------|
G|----------4-------6------4------2-----------------------|
D|--2-------4-x16---6-x8---4-x8---2-x16-------------------|
A|--2-x16---2-------4------2------0-----------------------|
E|--0-----------------------------------------------------|

Pre-Chorus:”What can I say…” Play 4x
e|--------------------------------------------------------|
B|--4-5-4-0--0-5-0--0-5-0-7-0-5-0-------------------------|
G|--------------------------------------------------------|
D|--------------------------------------------------------|
A|--------------------------------------------------------|
E|--------------------------------------------------------|

Chorus: “You can sleep in your own bed…” 
Guitar 1 plays: After intro 
Guitar 2 plays: Verse

Final Chorus: ”Cuz fate works both ways…”
e|--------------------------------------------------------|
B|--------------------------------------------------------|
G|-----------------44-44-44-4-4-4-4-66-66-44-4-4-4-4-2----|
D|22-22-22-2-2-2-2-44-44-44-4-4-4-4-66-66-44-4-4-4-4-2-x16|
A|22-22-22-2-2-2-2-22-22-22-2-2-2-2-44-44-22-2-2-2-2-0----|
E|00-00-00-0-0-0-0----------------------------------------|

End On:
e|-------|
B|-------|
G|-------|
D|--2----|
A|--2----|
E|--0----|
            
Hard to play? Try these video lessons and learn fast. | Correct




comments powered by Disqus
↑ Back to top | Tablatures and chords are parodies/interpretations of the original songs. You may use it for private study, scholarship, research or language learning purposes only