» » »

Star Fucking Hipsters, Two Cups Of Tea Bass tabs (ver.1)

Artists:  A B C D E F G H I J K L M N O P Q R S T U V W X Y Z # 

Two Cups Of Tea Bass tabs (ver.1)

Star Fucking Hipsters Tabs
 Rating:
3.4/5 (5 votes)
Two Cups Of Tea lessons Tabs too difficult? Try these video lessons and learn fast
                
                                          Two Cups of Tea                                             


                                                                                 Star f**king Hipsters
Bass



                                                                             H.            Q      
G||-------|-------|-------|-------|-------|-------|-------|-------|-------|----------------------|
D||-------|-------|-------|-------|-------|-------|-------|-------|-------|----------------------|
A||-------|-------|-------|-------|-------|-------|-------|-------|-------|----------------------|
E||-------|-------|-------|-------|-------|-------|-------|-------|-------|---------------14S----|


    E  Q    E  E  Q    E     E  Q    E  E  Q    E     E  Q    E  E  Q    E     E  Q    E  E  Q    E   
|-------------------------|------------------------|------------------------|------------------------|
|*------------------------|------------------------|------------------------|------------------------|
|*-------------1-------1--|--6-------6--2-------2--|-------------1-------1--|--2-------2--4-------4--|
|---2-------2-------------|------------------------|--2-------2-------------|------------------------|


  E  Q    E  E  Q    E     E  Q    E  E  Q    E     E  Q    E  E  Q    E     E  Q    E  E  Q    E   
------------------------|------------------------|------------------------|------------------------|
------------------------|------------------------|------------------------|------------------------|
--6-------6--6-------6--|--2-------2--2-------2--|-------------4-------4--|------------------------|
------------------------|------------------------|--2-------2-------------|--2-------2--2-------2--|


  E  Q    E  E  Q    E     E  Q    E  E  Q    E   3x  E  E  Q      E   E   Q      
------------------------|-------------------------||-----------------------------|
------------------------|------------------------*||-----------------------------|
------------------------|------------------------*||-----------------------------|
--2-------2--1-------1--|--2-------2--2-------2---||--2--2--2S----14--14--14S----|


  E  E  E  E  E  E  E  E     E  E  E  E  E  E  E  E     E  E  E  E  E  E  E  E   
--------------------------|--------------------------|--------------------------|
--------------------------|--------------------------|--------------------------|
--------------1--1--1--1--|--6--6--6--2--2--2--2--2--|--------------1--1--1--1--|
--2--2--2--2--------------|--------------------------|--2--2--2--2--------------|


  E  E  E  E  E  E  E  E     E  E  E  E  E  E  E  E     E  E  E  E  E  E  E  E   
--------------------------|--------------------------|--------------------------|
--------------------------|--------------------------|--------------------------|
--2--2--2--4--4--4--4--4--|--6--6--6--6--8--9--8--6--|--2--2--2--2--4--6--4--2--|
--------------------------|--------------------------|--------------------------|


  E  E  E  E  E  E  E  E     E  E  E  E  E  E  E  E     E  E  E  E  E  E  E  E   
--------------------------|--------------------------|--------------------------|
--------------------------|--------------------------|--------------------------|
--------------4--4--4--4--|--------------------------|--------------------------|
--2--2--2--2--------------|--2--2--2--2--2--2--2--2--|--2--2--2--2--1--1--1--1--|


  E  E  E  E  E  E    Q          E  Q    E  E  Q    E     E  Q    E  E  Q    E   
----------------------------||-------------------------|------------------------|
----------------------------||*------------------------|------------------------|
----------------------------||*-------------1-------1--|--6-------6--2-------2--|
--2--2--2--2--2--2S--14S----||---2-------2-------------|------------------------|


  E  Q    E  E  Q    E     E  Q    E  E  Q    E     E  Q    E  E  Q    E     E  Q    E  E  Q    E   
------------------------|------------------------|------------------------|------------------------|
------------------------|------------------------|------------------------|------------------------|
-------------1-------1--|--2-------2--4-------4--|--6-------6--6-------6--|--2-------2--2-------2--|
--2-------2-------------|------------------------|------------------------|------------------------|


  E  Q    E  E  Q    E     E  Q    E  E  Q    E     E  Q    E  E  Q    E     E  Q    E  E  Q    E   3x
------------------------|------------------------|------------------------|-------------------------||
------------------------|------------------------|------------------------|------------------------*||
-------------4-------4--|------------------------|------------------------|------------------------*||
--2-------2-------------|--2-------2--2-------2--|--2-------2--1-------1--|--2-------2--2-------2---||


  E  E  Q      E   E   Q          E  E  E  E  E  E  E  E     E  E  E  E  E  E  E  E   
-----------------------------||---------------------------|--------------------------|
-----------------------------||*--------------------------|--------------------------|
-----------------------------||*--------------1--1--1--1--|--6--6--6--2--2--2--2--2--|
--2--2--2S----14--14--14S----||---2--2--2--2--------------|--------------------------|


  E  E  E  E  E  E  E  E     E  E  E  E  E  E  E  E     E  E  E  E  E  E  E  E   
--------------------------|--------------------------|--------------------------|
--------------------------|--------------------------|--------------------------|
--------------1--1--1--1--|--2--2--2--4--4--4--4--4--|--6--6--6--6--8--9--8--6--|
--2--2--2--2--------------|--------------------------|--------------------------|


  E  E  E  E  E  E  E  E     E  E  E  E  E  E  E  E     E  E  E  E  E  E  E  E   
--------------------------|--------------------------|--------------------------|
--------------------------|--------------------------|--------------------------|
--2--2--2--2--4--6--4--2--|--------------4--4--4--4--|--------------------------|
--------------------------|--2--2--2--2--------------|--2--2--2--2--2--2--2--2--|


  E  E  E  E  E  E  E  E     E  E  E  E  E  E    Q           E  Q    E  E  Q    E   
--------------------------|-----------------------------||-------------------------|
--------------------------|----------------------------*||*------------------------|
--------------------------|----------------------------*||*-------------1-------1--|
--2--2--2--2--1--1--1--1--|--2--2--2--2--2--2S--14S-----||---2-------2-------------|


  E  Q    E  E  Q    E     E  Q    E  E  Q    E     E  Q    E  E  Q    E     E  Q    E  E  Q    E   
------------------------|------------------------|------------------------|------------------------|
------------------------|------------------------|------------------------|------------------------|
--6-------6--2-------2--|-------------1-------1--|--2-------2--4-------4--|--6-------6--6-------6--|
------------------------|--2-------2-------------|------------------------|------------------------|


  E  Q    E  E  Q    E     E  Q    E  E  Q    E     E  Q    E  E  Q    E     E  Q    E  E  Q    E   
------------------------|------------------------|------------------------|------------------------|
------------------------|------------------------|------------------------|------------------------|
--2-------2--2-------2--|-------------4-------4--|------------------------|------------------------|
------------------------|--2-------2-------------|--2-------2--2-------2--|--2-------2--1-------1--|


  E  Q    E  E  Q    E       E  Q    E  E  Q    E     E  Q    E  E  Q    E     E  Q    E  E  Q    E   
-------------------------||------------------------|------------------------|------------------------|
------------------------*||------------------------|------------------------|------------------------|
------------------------*||-------------4-------4--|------------------------|-------------4-------4--|
--2-------2--2-------2---||--2-------2-------------|--2-------2--2-------2--|--2-------2-------------|


  E  Q    E  E  Q    E     E  Q    E  E  Q    E     E  Q    E  E  Q    E     E  Q    E  E  Q    E   
------------------------|------------------------|------------------------|------------------------|
------------------------|------------------------|------------------------|------------------------|
------------------------|------------------------|------------------------|------------------------|
--2-------2--2-------2--|--2-------2--1-------1--|--2-------2--2-------2--|--2-------2--1-------1--|


  E  E.  E.  E.   Q    S    W                  
-------------------------|-------------------||
-------------------------|-------------------||
-------------4S---9----L-|--L----------------||
--2--4---6---------------|-------------------||




Duration Legend
---------------
W - whole
H - half
Q - quarter
E - 8th
S - 16th
T - 32nd
X - 64th
. - note dotted
|-n-|  - n-tuplets


Tablature Legend
----------------
L - tied note
x - dead note
g - grace note
(n) - ghost note
> - accentuded note
NH - natural harmonic
AH - artificial harmonic
TH - tapped harmonic
SH - semi harmonic
PH - pitch harmonic
h - hammer on
p - pull off
b - bend
br - bendRelease
pb - preBend
pbr - preBendRelease
brb - bendReleaseBend
\n/ - tremolo bar dip
\n - tremolo bar dive
-/n - tremolo bar Release up
/n\ - tremolo bar inverted dip
/n - tremolo bar return
-\n - tremolo bar Release down
S - shift slide
s - legato slide
/ -  slide into from below or out of upwards
\ -  slide into from above or out of downwards
~ - vibrato
W - wide vibrato
tr - trill
TP - tremolo picking
T - tapping
S - slap
P - pop
< - fade in
^ - brush up
v - brush down
            
Submit corrections

comments powered by Disqus
↑ Back to top | Star Fucking Hipsters Bass for Two Cups Of Tea. Lyrics for acoustic guitar and electric guitar. Tablatures and chords are parodies/interpretations of the original songs. You may use it for private study, scholarship, research or language learning purposes only