» » »

Star Fucking Hipsters, Snitch To The Suture Tabs (ver.3)

Artists:  A B C D E F G H I J K L M N O P Q R S T U V W X Y Z # 

Snitch To The Suture Tabs (ver.3)

Star Fucking Hipsters Tabs
 Rating:
4.2/5 (5 votes)
Snitch To The Suture lessons Tabs too difficult? Try these video lessons and learn fast
                -------------------------------------------------------------------------------
               Snitch To the Suture - Star f**king Hipsters
-------------------------------------------------------------------------------

Tuning: half-step down

I know this isn't 100% correct. I put this up in hopes of getting close enough for 
to build off so it will become 100% correct.
intro: This can be played many ways; I find this the easiest... No they're not 10s
eb|-------------------------------------------------------------------------|
Bb|-------------------------------------------------------------------------|
Gb|-------------------------------------------------------------------------|
Db|------0--------------0-------------0------------------0-5454-------------|
Ab|----01--1010----0--01--1010------01--1010-----0---0-1--------------------|
Eb|--3---------32-2--3--------32---3---------32-2--3------------------------|

verse:  (you can figure out the strumming; it's really simple to play, just difficult to tab)
eb|-----------------------|
Bb|------8-----8-----7----|   X4
Gb|------7-----8-----6----|
Db|------5-----5-----4----|
Ab|-----------------------|
Eb|-----------------------|

chorus:

eb|-----------------------------|
Bb|-----------------------------|   X4
Gb|--8---8---6---7--------------|
Db|--7---5---5---6--------------|
Ab|--5---5---3---4--------------|
Eb|-----------------------------|

Intro

Verse X4

Chorus X4

Breakdown: (yes these are 10s)
eb|-----------------------------------------------------------------|
Bb|-----------------------------------------------------------------| X2
Gb|-----------------------------------------------------------------|
Db|-----------------------------------------------------------------|
Ab|-----------------------------------------------------------------|
Eb|-------10\3---3-2---2-3---3-2/10\3---3-2---2-3---3-2/10\---------|

eb|-----------------------------------------------------------------|
Bb|-----------------------------------------------------------------| X2
Gb|-----------------------------------------------------------------|
Db|--5-55555555--4-44444444-5-55555555-4----------------------------|
Ab|--5-55555555--4-44444444-5-55555555-4----------------------------|
Eb|--3-33333333--2-22222222-3-33333333-2-/10------------------------|
       pm......    pm......   pm......
eb|-----------------------------------------------------------------|
Bb|-----------------------------------------------------------------| X6
Gb|-------7----7----7----7------------------------------------------|
Db|-----5---54---45---54---4----------------------------------------|
Ab|-----------------------------------------------------------------|
Eb|-----------------------------------------------------------------|
       tm...................

-insert solo here-

Intro is the outro except with this addition after it
eb|-------|
Bb|-------|
Gb|-------|
Db|--4----|
Ab|--4----|
Eb|--2----|
            
Submit corrections

comments powered by Disqus
↑ Back to top | Star Fucking Hipsters Tabs for Snitch To The Suture. Lyrics for acoustic guitar and electric guitar. Tablatures and chords are parodies/interpretations of the original songs. You may use it for private study, scholarship, research or language learning purposes only