» » »

Death Is Never Out Of Fashion Tabs (ver.2)

Artists:  A B C D E F G H I J K L M N O P Q R S T U V W X Y Z # 

Death Is Never Out Of Fashion Tabs (ver.2)

Star Fucking Hipsters
Rating:
0/5 (0 votes)

Hard to play? Try these video lessons and learn fast.
                This is my frist tab it should be right but its probably not complete. E-mail me if 

 E||---------------------------------------------------------------------------|
 B||---------------------------------------------------------------------------|
 G||--5-5-5-5-6-5-5-5-5---5-5-5-5-6-4--4--4----44------------------------------|
 D||--5-5-5-5-6-5-5-5-5-5-5-5-5-5-6-4--4--4----44------------------------------|
 A||--4-4-4-4-5-4-4-4-4-5-4-4-4-4-5-5--5--5-X2-55------------------------------|
 E||---------------------4-----------------------------------------------------|


    SKA( Figure out how many times to strum)
 E||--5---4---2---5---7------------|
 B||--5---5---3---6---8------------|
 G||--6---6---4---7---9------------|
 D||--7---6---4---7---9------------|
 A||--7---4---2---5---7------------|
 E||--5---4---2---5---7------------|

E||-------------------------------|
B||-------------------------------|
G||-------------------------------|
D||----7--7--4--7-----------------|
A||----7--7--4--7-----------------|
E||----5--4--2--5-----------------|
            
Hard to play? Try these video lessons and learn fast. | Correct




comments powered by Disqus
↑ Back to top | Tablatures and chords are parodies/interpretations of the original songs. You may use it for private study, scholarship, research or language learning purposes only