» » »

Girls Just Want To Have Fun Bass tabs (ver.1)

Artists:  A B C D E F G H I J K L M N O P Q R S T U V W X Y Z # 

Girls Just Want To Have Fun Bass tabs (ver.1)

Starfucker
Rating:
0/5 (0 votes)

Hard to play? Try these video lessons and learn fast.
                Intro 

G|---------------------------------------|
D|---------------------------------------|
A|----------------2-4-66-4-66-6-66-6-2-4-|
E|-22-1-22-2-22-2------------------------|

G|---------------------------------------|
D|---------------------------------------|
A|----------------2-4-66-4-66-6-66-6-2-4-|
E|-22-1-22-2-22-2------------------------|

Verse & Chorus

G|---------------------------------------|
D|---------------------------------------|
A|----------------2-4-66-4-66-6-66-6-2-4-|
E|-22-1-22-2-22-2------------------------|

G|--------------------------------------------------|
D|--------------------------------------------------|
A|----------------2-4-66-6-44-4-22-2-22-4-66-6-44-4-|
E|-22-1-22-2-22-2----------------------------------2|

Repeat Repeat!
            
Hard to play? Try these video lessons and learn fast. | Correct




comments powered by Disqus
↑ Back to top | Tablatures and chords are parodies/interpretations of the original songs. You may use it for private study, scholarship, research or language learning purposes only