» » »

Springsteen Bruce, The Price You Pay Bass tabs (ver.1)

Artists:  A B C D E F G H I J K L M N O P Q R S T U V W X Y Z # 

The Price You Pay Bass tabs (ver.1)

Springsteen Bruce Tabs
 Rating:
4/5 (4 votes)
The Price You Pay lessons Tabs too difficult? Try these video lessons and learn fast
                "(1)
This version is from "The River" album

Intro
|---------------------------------------------------------------------|
|---------------------------------------------------------------------|
|-------2-------2---0---7---5---------2---0---7---5--------2---0---5--|
|---3-------3-----------------------3--------------------3------------|

|-----------------------|
|-----------------------|
|--5-5-5-5-5-5-5-2-0----|
|-----------------------|

|-----------------------------------------------------------------------|
|-----------------------------------------------------------/7----------|
|-------2-------2---0---7---5--------2---0---7---5----------------------|
|---3-------3---------------------3------------------------------3---3--|

verse
|------------------------------------------------------------------------
|--------------------------------5--7------------------------------------
|--5--7------5--7-------5-7-3-3--------3--3--5--7--------5--7---------2--
|-------3--3------3--3-----------------------------3--3--------3-3-3----3

|---------------------------------------------------------------------------|
|------------------------------------------------------5--7-----------------|(*)
|-5-5--0--2--5-5--5--2--0--------5--7-------5-5-5--3-3-------3-3--3-5-3-----|
|--------------------------3--3--------3--3------------------------------3-3|

|-------------------------------------------------------|
|-------------------------------------------------------|
|------------5-5----5-----3-3-----0---3-3-3-3-----/5----|
|---0-1-0--------5----5--------3------------------------|

chorus
|-----------------------------------------------------------------------------|
|-----------------------------------5--7--------------------------------------|
|--------5--7---------5--7--3--3-3------3--3-3---5--5-3-----/5-5---3----0---3-|
|-3-3-3-------3--3-3-------------------------------------3-------------3------|

1 verse variation
|-------------------------------------------------------------------------
|-------------------------------------------------------------------------
|-------------------------------------------------------------------------
|--3-3---3-3---3-3---3-3---3-3---/8-8---8-8---\3-3---3-3---/10-10---10-10-

|-----------------------------------------------|
|-----------------------------------------------|
|-----------------------------------------------|
|--\3-3---3-3---/8-8---8-8---\3-3---/10----8-8--|

2 verse variation
|---------------------------------------------------------------------|
|---------------------------2------2---0------0-----------------------|
|-----------5-5---0-3-0--------2-----------2------3-3-------------3---|
|---0-1-0-------------------------------------------------3-3---------|

song structure

intro
verse
verse
chorus
verse
chorus
intro(harmonica solo)
verse variation
verse (the 2 verse variation starts from (*))
intro

I think this is quite complete. For any suggestions or comments, please mail me
"            
Submit corrections

comments powered by Disqus
↑ Back to top | Springsteen Bruce Bass for The Price You Pay. Lyrics for acoustic guitar and electric guitar. Tablatures and chords are parodies/interpretations of the original songs. You may use it for private study, scholarship, research or language learning purposes only