>
 >
Jungleland

Jungleland Guitar Tabs

Springsteen Bruce - Jungleland chords, tabs, tablatures, lyrics

Guitar lessons | Add/correct | Request | Top 50 tabs Artists:  A B C D E F G H I J K L M N O P Q R S T U V W X Y Z 0-9

Jungleland Guitar Tabs – Springsteen Bruce

CD, Sheet music, Poster

Do you like Jungleland? Share with your friends now
Bass TabsTabs
Jungleland     SONG
    Born to Run     ALBUM
       Bruce Springsteen   ARTIST


Since there is not one Jungleland Tab or Chord File out there, Here We Go.

        		(THERE IS A BONUS AT THE END OF THIS)

The Chords are on top of lyrics  -  some might not be perfect, but gives you an idea.

****Solo Included****

Intro :  Piano and Strings    leads up to  C		G   F	  chord progression

Piano Chords :
    C		     G   F	     C		    G    F    	C	         	
The rangers had a homecoming in Harlem late last night
And the Magic Rat drove his sleek machine over the Jersey state line
Barefoot girl sitting on the hood of a Dodge
Drinking warm beer in the soft summer rain
    D		      E          F      G	  	  
The Rat pulls into town rolls up his pants
D		        E       F       					    C	
Together they take a stab at romance and disappear down Flamingo Lane
Well the Maximum Lawman run down Flamingo chasing the Rat and the barefootgirl
And the kids round here look just like shadows always quiet, holding hands
      D        E     F  G  D    E	  F   G   C 	 
As we take our stand       down in Jun-gle-land

    C			     G    F              C			    G     F   C
The midnight gang's assembled   and picked a rendezvous for the night
They'll meet `neath that giant Exxon sign that brings this fair city light
Man there's an opera out on the Turnpike
There's a ballet being fought out in the alley
Until the local cops, Cherry Tops, rips this holy night

D		E               F         G	
The street's alive as secret debts are paid
         D		E          F      G	
     D		 E              F             G	
Kids flash guitars just like switch-blades   
D		        E      F       G	
hustling for the record machine

    Bb                      D                             C  C
The hungry and the hunted explode into rock'n'roll bands
     Bb                                     (Bb)                         
That face off against each other out in the street down in 

         C						   Solo :
e--------8---------8----8------8-----8----8--------------8-|
b--------8---------8----8------8-----8----8------------8---|
g--------10b-------10b--10b----10b---10b--10b-----10b------|
d--------------------------xx------------------------------|
a--------------------------xx------------------------------|
e----------------------------------------------------------|
  Jungleland

e------8-8-------8-8-8---8-8-8----8-8--8--8---8-8-8-----8--8-----|
b------8-8-------8-8-8---8-8-8----8-8--8--8---8-8-8-----8--8-----|
g--10b-------10b-----10b-------10b--------10b-------10b----------|
d----------------------------------------------------------------|
a----------------------------------------------------------------|
e----------------------------------------------------------------|
 
e------8-8-------8-8-8---8-8-8----8-8--8--8---8-8-8---------------|
b------8-8-------8-8-8---8-8-8----8-8--8--8---8-8-8--------13--15-|
g--10b-------10b-----10b-------10b--------10b----------14---------|
d-----------------------------------------------------------------|
a-----------------------------------------------------------------|
e-----------------------------------------------------------------|
 
e----------------------------------------------------------------|
b---13--15bvvvvvvvvvv--17b18--r17--13----------------------------|
g----------------------------------------------------15bvvvvv-17-|
d---------------------------------------/17--15--14--------------|
a----------------------------------------------------------------|
e----------------------------------------------------------------|

e----------------------------------------------------------------|
b----------------12--13--15---15bvvvvvv(r15)--13--/18vv--\17vvvv-|
g--14vvv-12--14--------------------------------------------------|
d----------------------------------------------------------------|
a----------------------------------------------------------------|
e----------------------------------------------------------------|
        
           2x
e--------|---------------------------15bvvvvv-15vv-13-||
b---15vv-|-13vvvv--15bvvvv(r15)--13-------------------||
g--------|--------------------------------------------|-|
d--------|--------------------------------------------|-|
a--------|--------------------------------------------||
e--------|--------------------------------------------||

e-----------------------15bvvvvvvv--|
b-13--15bvvvvv(r15)--13-------------|
g-----------------------------------|
d-----------------------------------|
a-----------------------------------|
e-----------------------------------|

       D		   F		  C			 G			     	 
In the parking lot the visionaries dress in the latest rage
D                               F                           F   G G     
Inside the backstreet girls are dancing to the records that the D.J. plays
D			  F 	      
Lonely-hearted lovers struggle in dark corners
C                      G         C                          F   G       G                 
Desperate as the night moves on, just a look and a whisper, and they're gone

Sax solo

Beneath the city two hearts beat
Soul engines running through a night so tender in a bedroom locked
In whispers of soft refusal and then surrender in the tunnels uptown
The Rat's own dream guns him down as shots echo down them hallways in thenight
No one watches when the ambulance pulls away
Or as the girl shuts out the bedroom light

            D				            C	  
Outside the street's on fire in a real death waltz
        D                C               D 
Between flesh and what's fantasy and the poets down here
            F                         G                         D                 
Don't write nothing at all, they just stand back and let it all be
           Bb
And in the quick of the night they reach for their moment
			            D                          Bb
And try to make an honest stand   but they wind up wounded,   not even dead
                 C 
Tonight in Jungleland


Bonus : Born to Run Intro

e----0------------------------------
b----0------------------------------
g----1------2--1--------------------
d----2--------------------2---4vvv--
a----2------------2vvvvv------------
e----0------------------------------





Comments


Popular Springsteen Bruce tabs & chords
Glory Days Bass Tabs
Glory Days 1 Bass Tabs
Glory Days Chords
Into The Fire Chords
Red Headed Woman Chords
Roll Of The Dice Chords
Tunnel Of Love Chords
A Reason To Believe Tabs
Badlands Tabs
Straight Time Tabs


Song lyrics



↑ Back to top | Tablatures and chords are parodies/interpretations of the original songs. You may use it for private study, scholarship, research or language learning purposes only
© 2014 AZChords.com Contact us | Privacy policy | DMCA | Add/correct tabs | Request tabs | Top 50 tabs