>
 >
Sherry Darling

Sherry Darling Bass Tabs

Springsteen Bruce - Sherry Darling chords, tabs, tablatures, lyrics

Guitar lessons | Add/correct | Request | Top 50 tabs Artists:  A B C D E F G H I J K L M N O P Q R S T U V W X Y Z 0-9

Sherry Darling Bass Tabs – Springsteen Bruce

CD, Sheet music, Poster

Do you like Sherry Darling? Share with your friends now
Bass Tabs

The first 2 minutes of this .party noise. song.

Corrections are welcome.

! aprox= 140
F Major key

INTRO   0:04
 Bb  .   .   .    C   .   .   .    .   .   .   .    F   .   .   .  
|----------------|--------------0-|----------------|---------------|
|------------0---|------------2---|------------2---|---------------|
|1-----1-1-----1-|3-----3-3-------|3-----3-3-------|------------0--|
|----------------|----------------|--------------3-|1-----1-3-----1|

 Bb  .   .   .    C   .   .   .    F   .   Bb  .    F   C   .   .  
|----------------|----------------|--------3---5---|---------------|
|----------------|------------2---|3-----3---------|3-r-----0-0-2--|
|1-----1---0-1---|3-----3---3-----|----------------|----3-3--------|
|--------1-------|--------3-------|----------------|--------------0|


VERSE 1   0:18
 F   .   .   .    Bb  .   .   .    C   .   .   .    F   .   .   .  
|----------------|----------------|----------------|---------------|
|----------------|----------------|----------------|---------------|
|------------0---|1-----1-----1---|3-----3-----3---|------------0--|
|1-----1-1-------|--------1-------|--------3-------|1-----1-3----(1)
yappin. in..     seat..           over..            feed..

 Bb  .   .   .    C   .   .   .    F   .   .   .    C   .   .   .  
|----------------|----------------|----------------|---------------|
|----------------|----------------|------------0---|---------------|
|1-----1-----1---|3-----3-----3---|--------0-------|3-----3-0------|
|--------1-------|--------3-------|1-----1---------|------------3--|
I gotta..         unemploym.. agen-cy                Well

 F   .   .   .    Bb  .   .   .    C   .   .   .    F   .   .   .  
|----------------|----------------|----------------|---------------|
|----------------|----------------|----------------|---------------|
|------------0---|1-----1-----1---|3-----3-----3---|------------0--|
|1-----1-3-------|--------1-------|--------3-------|1-----1-3----(1)
fightin. Tell..  .up. Tell..       wins if..   shut-up.   But it.s..

 Bb  .   .   .    C   .   .   .    F   .   Bb  .    F   .   .   .  
|----------------|----------------|----------------|---------------|
|----------------|----------------|--------8---10--|---------------|
|1-----1-----1---|3-----3-----3 / |8-----8---------|8-----------0--|
|--------1-------|--------3-------|----------------|----1-1-3-3---1|
last time..       gonna be..  with me.                And you can..


CHORUS 1   0:45
 Bb  .   .   .    C   .   .   .    .   .   .   .    F   .   .   .  
|----------------|----------------|----------------|---------------|
|----------------|----------------|----------------|--------3---2--|
|1-----1-----1---|3-----3-----3-0-|3-----3-----3---|------3--------|
|--------1-------|--------3-------|--------3-------|1--------------|
hot sun..         black top.     ..talkin....     last block    She

 Dm  .   .   .    .   .   .   .    C   .   .   .    .   .   .   .  
|----------------|----------------|----------------|---------------|
|----------------|----------------|----------------|---------------|
|5-----5---------|5-----5-----5---|3-----3-----3-0-|3---1---0------|
|--------5----(5)|--------5-------|--------3-------|------------3--|
take..       back____to..  ..tonight...               Well I got som

 F   .   .   .    Bb  .   .   .    C   .   .   .    F   .   .   .   
|----------------|----------------|----------------|---------------|
|----------------|----------------|----------------|---------------|
|------------0---|1-----1---0-1(0)|3-----3---0-3---|------------0--|
|1-----1-1-3---1-|--------1-------|--------3-------|1-----1-3-----1|
beer..    .way.s free.      I got you baby & you got me       heyhey

 Bb  .   .   .    C   .   .   .    F   .   Bb  .    F   C   .   .  
|----------------|----------------|--------3---5---|---------------|
|----------------|----------------|3-----3---------|3-----------2?-|
|1-----1-----1---|3-----3-----3---|----------------|----3-3-5?5?--3?
|--------1-------|--------3-------|----------------|---------------|
hey,     what you say,     Sherry Darlin.. 


VERSE 2  1:13 (repeat verse 1)


CHORUS 2  1:40
 Bb  .   .   .    C   .   .   .    .   .   .   .    F   .   .   . 
|------------0---|----------0-2---|----------------|------------2--|
|--------0-3-----|--------2-------|------5-----2---|3-------3-----3|
|1-----1---------|3-----3---------|3-------3-----3-|------3--------|
|----------------|----------------|------3?--------|---------------|
hot sun..         black top.     ..talkin....     last block    She

 Dm  .   .   .    .   .   .   .    C   .   .   .    .   .   .   . 
|----------------|----------------|----------------|---------------|
|----------------|----------------|--------2-2-2-2-|5-5-5-??????---|
|5-----5---------|5-----5-----5---|3-3-3-3---------|---------------|
|--------5-----5-|--------5-------|----------------|---------------|
take..       back____to..  ..tonight...               Well I got som

 F   .   .   .    Bb  .   .   .    C   .   .   .    F   .   .   .  
|----------------|------0---------|----------------|---------------|
|3-----3---0-3---|--------3---0---|----------------|--------3-2----|
|--------3-------|1-------------1-|3-----3-----3---|------3-----3-0|
|----------------|----------------|--------3-------|1--------------|
beer..    .way.s free.      I got you baby & you got me       heyhey

 Bb  .   .   .    C   .   .   .    F   .   Bb  .    F   C   .   .  
|----------------|----------------|----------------|---------------|
|----------------|----------------|----------------|3-----------2?-|
|1-----1-----1---|3-----3-----3---|--------1---3---|----3-3-5?5??-3?
|--------1-------|--------3-------|1-----1---------|---------------|
hey,     what you say,     Sherry Darlin.. 

SAX SOLO   2:08 (repeat verse 1)


. ...beat
/....slide up or down
h....hammer
p....pull
r....rest
( )..ghost note

greetings from barcelona,
edgar





Comments


Popular Springsteen Bruce tabs & chords
Brilliant Disguise Chords
Fire Chords
Hungry Heart Chords
Jersey Girl Chords
Real World Chords
Atlantic City Tabs
Born In The Usa 2 Tabs
Born To Run Tabs
Highway Patrolman 1 Tabs
Im On Fire Tabs


Song lyrics



↑ Back to top | Tablatures and chords are parodies/interpretations of the original songs. You may use it for private study, scholarship, research or language learning purposes only
© 2014 AZChords.com Contact us | Privacy policy | DMCA | Add/correct tabs | Request tabs | Top 50 tabs