» » »

Out In The Street Bass tabs (ver.1)

Artists:  A B C D E F G H I J K L M N O P Q R S T U V W X Y Z # 

Out In The Street Bass tabs (ver.1)

Springsteen Bruce
Rating:
0/5 (0 votes)

Hard to play? Try these video lessons and learn fast.
                
Corrections are welcome.

! aprox= 145
A Major key

INTRO
 A   .   .   .    A/D .   .   .    F#m7.   .   .    Bm7 .   Gsu2.   
|----------------|----------------|----------------|---------------|
|----------------|----------------|----------------|---------------|
|----------------|5---------------|----------------|2--------------|
|5---------------|----------------|2-----------r---|--------3------|

 A   .   .   .    A/D .   .   .    F#m7.   .   .    Bm7 .   Gsu2.
|----------------|----------------|----------------|---------------|
|----------------|------------2r--|4-----4-4-2-----|------------5--|
|----------2-4---|5-----5-5-4-----|------------4---|2-----25-------|
|5-----5-5-------|----------------|----------------|--------3------|

VERSE 1 and 2
 D   .   .   .    E   .   .   .    A   .   .   .    .   .   .   .  
|----------------|----------------|----------------|---------------|
|----------------|2-----2-----2r--|----------------|---------------|
|5-----5-----5---|--------2-------|----------------|----------2-4--|
|--------5-------|----------------|5-----0-5----(0)|5-----0-5----(5)
1.     Put on..   best..                 And dar-..  fix.. 	
2.    I work ..   days..                    loadin. crates down on..

 D   .   .   .    E   .   .   .    A   .   .   .    .   .   .   .  
|----------------|----------------|----------------|---------------|
|----------------|2-----2-----2---|----------------|---------------|
|5-----5-----5---|--------2-------|----------------|----------2-4--|
|--------5-------|----------------|5-----0-5----(0)|5-----0-5-----5|
 right.           party..               Way down.. beneath.. 
 dock           ..hard earned m.       And meet my girl ...

 D   .   .   .    E   .   .   .    D   .   .   .    
|----------------|----------------|----------------| 
|----------------|2-----2-----2---|----------------|
|5-----5-----5---|--------2-------|5-----5-----5---|
|--------5-------|----------------|--------5-------|
lights.        ..workin...             Now to-..    
block.         ..foreman calls..       I.ve ..      

0:32
|1.__(first verse)_________________________________|
 C#  .   .   .    F#m .   .   .    E   .   .   .     
|----------------|----------------|----------------||
|----------------|------------4---|2--------------*||
|4-----4-----4---|--------4-------|------2-----4--*||
|--------4-------|2-----2---------|--------4-4-----||
 you.re..        time.                               

0:56
|2.__(second verse)________________________________________________
 C#  .   .   .    F#m .   .   .    Bm   .   .   .   F#m .   .   .  
|----------------|----------------|----------------|---------------|
|----------------|----------------|----------------|---------------|
|4-----4-----4---|----------------|2----r----------|---------------|
|--------4-------|2---r---------2-|----------------|2---r----------|
 Friday           mind   ..whistle blow, girl,...  street.  ..    
_________________|
 F#m .   .   .     
|----------------||
|4---2-----------||
|--------5---4---||
|----------------||
out of my work clothes

CHORUS  1:04
 A   .   .   .    D   .   .   .    A   .   .   .    E   .   .   . 
|----------------|----------4h7---|----------------|---------------|
|----------4h7---|------4h7-------|------7---4-----|---------------|
|------4h7-------|5---------------|------------4---|7---7-----6----|
|5---------------|----------------|5---------------|------7-----7-4|
   When I.m..       oh oh.. oh     oh    I walk the way I ...

 A   .   .   .    D   .   .   .    A   .   .   .    E   .   .   . 
|----------------|----------4h7---|----------------|---------------|
|----------4h7---|------4h7-------|------7---4-----|---------------|
|------4h7-------|5---------------|------------4---|7---7----------|
|5---------------|----------------|5---------------|------0---7-4--|
   When I.m..       oh oh.. oh     oh    I talk the way I wanna ...
                                      
 D   .   .   .    A/C#.   .   .    Bm  .   .   .    
|----------------|----------------|----------------|
|----------------|----------------|----------------|
|5-----------5---|4-----------4---|2-----------2---|
|------5-5-------|------5-5-------|------2-2-------|
   When I.m...     When I.m..street______

INTRO FIG AGAIN
1:22
 A   .   .   .    A/D .   .   .    F#m7.   .   .    Bm7 .   Gsus2
|----------------|----------------|----------------|---------------|
|----------------|------------2---|4-----4-4-2-----|---------------|
|----------2-4---|5-----5-5-4-----|------------4---|2-----5/10-----|
|5-----5-5-------|----------------|----------------|------------5--|

VERSE 3   1:29  (Repeat verse 2)

CHORUS   1:56 (Repeat chorus)

BRIDGE   2:16
 D/A .   .   .    E   .   .   .    E/G#.   .   .      
|----------------|----------------|----------------||
|--------7-4-----|----------------|6-6-6-6-6-6-6-6-||
|-------5----5---|7---7-7-7-7-7-7-|----------------||
|5---------------|----------------|----------------||
                    Baby out in..    .. waitin. for you______

SAX SOLO   2:19   (Repeat verse 2)


ANOTHER CHORUS   2:45
 A   .   .   .    D   .   .   .    A   .   .   .    E   .   .   . x4
|----------------|----------4h7---|----------------|---------------|
|*---------4h7---|------4h7-------|------7---4-----|---------------*
|*-----4h7-------|5---------------|------------4---|7---7-----6----*
|5---------------|----------------|5--(5)----------|------7-----7-4|

3:12
 D   .   .   .    A/C#.   .   .    Bm  .   .   .    
|----------------|----------------|----------------|
|----------------|----------------|----------------|
|5-----------5---|4-----------4---|2-----------2---|
|------5-5-------|------5-5-------|------2-2-------|
   Baby out..          I just feel   all   right.
3:17
 D/A .   .   .    E   .   .   .    E/G#.   .   .    F#m .   .   .  
|----------------|----------------|----------------|---------------|
|--------7-4-----|----------------|6-6-6-6-6-6-6-6-|4---4---4---4--|
|-------5----5---|7---7-7-7-7-7-7-|----------------|---------------|
|5---------------|----------------|----------------|---------------|
                   Meet  me out..    little girl to-night.

 Bm  .   .   .    D   .   .   .    E   .   .   .     
|----------------|----------------|----------------||
|----------------|----------------|2---2---2---2---||
|2---2---2---2---|5---5---5---5---|----------------||
|----------------|----------------|----------------||
                   Meet  me out..    Meet me out..  street.

And repeat intro fig


. ...beat
/....slide up or down
h....hammer
p....pull
r....rest
( )..ghost note

greetings from barcelona,
edgar
            
Hard to play? Try these video lessons and learn fast. | Correct




comments powered by Disqus
↑ Back to top | Tablatures and chords are parodies/interpretations of the original songs. You may use it for private study, scholarship, research or language learning purposes only