» » »

Pare Ko Chords (ver.1)

Artists:  A B C D E F G H I J K L M N O P Q R S T U V W X Y Z # 

Pare Ko Chords (ver.1)

Sponge Cola
Rating:
0/5 (0 votes)

Hard to play? Try these video lessons and learn fast.
                any comment e-mail me..=) 

Intro: G C9 (2x)

e---3-3-3-3-3-3-3-3-3-3-3-3-3-3-3-3-----------------I
g---3-3-3-3-3-3-3-3-3-3-3-3-3-3-3-3-----------------I
b---0-0-0-----------0-0-0---------------------------I
D---0-0-0-----------2-2-2---------------------------I
A---2-2-2-----------3-3-3---------------------------I
E---3-3-3-------------------------------------------I

     Pare ko,          meron akong prublema

e---3-3-3-3-3-3-3-3-3-3-3-3-3-3-3-3-----------------I
g---3-3-3-3-3-3-3-3-3-3-3-3-3-3-3-3-----------------I
b---0-0-0-----------0-0-0---------------------------I
D---0-0-0-----------2-2-2---------------------------I
A---2-2-2-----------3-3-3---------------------------I
E---3-3-3-------------------------------------------I
  'Wag mo sabihing "na naman?"


e---3-3-3-3-3-3-3-3-3-3-3-3-3-3-3-3-----------------I
g---3-3-3-3-3-3-3-3-3-3-3-3-3-3-3-3-----------------I
b---0-0-0-----------0-0-0---------------------------I
D---0-0-0-----------2-2-2---------------------------I
A---2-2-2-----------3-3-3---------------------------I
E---3-3-3-------------------------------------------I
  In-lab ako sa isang kolehiyala

e---3-3-3-3-3-3-3-3-3-3-3-3-3-3-3-3-----------------I
g---3-3-3-3-3-3-3-3-3-3-3-3-3-3-3-3-----------------I
b---0-0-0-----------0-0-0---------------------------I
D---0-0-0-----------2-2-2---------------------------I
A---2-2-2-----------3-3-3---------------------------I
E---3-3-3-------------------------------------------I
  Hindi ko maintindihan


Am                   C
  Wag na nating idaan sa maboteng usapan
Am                              C               Dsus      D
  Lalu lang madaragdagan ang sakit ng ulo at bilbil sa tiyan.

G             C9
  Anong sarap, kami'y naging magkaibigan
G                    C9
  Napuno ako ng pag-asa
G         C9
  Yun pala hanggang dun lang ang kaya
G                    C9
  Akala ko ay puwede pa

refrain:
Am                    C
  Masakit mang isipin, kailangang tanggapin
       Am                         C          Dsus      D
  Kung kelan ka naging siryoso, saka ka niya gagaguhin.

Chorus
   G        D-Dsus  Em          C
  (O) Diyos ko,     ano ba naman ito
     G         D-Dsus  Em           C
  Di ba 'tang-ina,    nagmukha akong tanga
      G              D-Dsus
  Pinaasa niya lang ako
  Em                C
  Letseng pag-ibig 'to
G       D Em          C   G-D-Em  C
  Diyos ko, ano ba naman ito,    woh?

Ad lib: G-D-Em-C-; (2x)

G           C9
  Sabi niya, ayaw niya munang magkasyota
G                  C9
  Dehins ako naniwala
G             C9
  Di nagtagal, naging ganun na rin ang tema
G                           C9
  Kulang na lang ay sagot niya
Am                      C
  Ba't ba ang labo niya, di ko maipinta
       Am                         C            Dsus-D
  Hanggang kelan maghihintay, ako ay nabuburat na.

Bridge:
    Am-C       G       D
  Pero, minamahal ko siya
       Am-C      G        D
  Di biro, T.L. ako sa kanya
        Am           C            G      Em
  Alam kong nababaduyan ka na sa mga sinasabi ko
       Am                         D
  Pero sana naman ay maintindihan mo.

Same chords Stanza:
  O pare ko (o pare ko), meron ka bang maipapayo
  Kung wala ay okey lang (kung wala ay okey lang)
  Kailangan lang ay (kailangan lang) ang iyong pakikiramay
  Nandito ka ay ayos na (nandito ka ay ayos na)
  Masakit mang isipin, kailangang tanggapin
  Kung kelan ka naging seryoso
  Saka ka niya gagaguhin.


Repeat Chorus

  G     D   Em      C
  Hoh hoh, woh hoh hoh.
            
Hard to play? Try these video lessons and learn fast. | Correct




comments powered by Disqus
↑ Back to top | Tablatures and chords are parodies/interpretations of the original songs. You may use it for private study, scholarship, research or language learning purposes only