» » »

'di Na Mababawi Tabs (ver.1)

Artists:  A B C D E F G H I J K L M N O P Q R S T U V W X Y Z # 

'di Na Mababawi Tabs (ver.1)

Sponge Cola
Rating:
0/5 (0 votes)

Hard to play? Try these video lessons and learn fast.
                Tuning- Standard

txt mo si Yael.OK Kya nasa sacre sya ngayun...hahaha
- 09293150081

Intro-

e|-5~-------------|
B|--3~------------|
G|---4~-----------|
D|----4~----------|
A|-----2~---------|
E|----------------|

Verse-Bm A D 2x
      Bm A D A/C# Bm A

Verse-Bm A D 2x
      Bm A D A/C# Bm A

Chorus-G A Bm D7
       G A Bm B7
       G A Bm  Bm
Bridge-A G Bm
       A G Bm G Bm A

Solo- G ...  Bm A D 3x Bm A

e|-------------3~--|---2h3-2-0-2---------5---5------2h3-2-0----|
B|--------3----3~--|-3--------------7----5-7-5---3----------3--|
G|------2---2------|----------------7------7-------------------|
D|----0------------|---------------9---------------------------|
A|-----------------|-------------------------------------------|
E|-3~--------------|-------------------------------------------|


Armo- 09293150081

e|------5--5-----------------10-----12------14-15-14--10-9----|
B|--7-5-5--5--------/7-10-------10-----10---15-15-15--10-10---|
G|--7-6----------7-9------7-----------------------------------|
D|-9--7-------------------------------------------------------|
A|------------------------------------------------------------|
E|------------------------------------------------------------|

e|-------10~--12-10-------------------------------------------|
B|----12------------12s14------14~----------------------------|
G|-12---------------12s14----14~------------------------------|
D|-------------------------14~--------------------------------|
A|------------------------------------------------------------|
E|------------------------------------------------------------|


Chorus-G A Bm D7
       G A Bm B7
       G A Bm
       G A
end With

e|-5~-------------|
B|--3~------------|
G|---4~-----------|
D|----4~----------|
A|-----2~---------|
E|----------------|
Armo- 09293150081
Verse
Ngayo'y aking inuunawang pilit
Mga pagkukulang kong iyong ginigiit
Sana'y malaman mo na tanging ikaw lamang
Ang aking iniintindi

Verse
Nakatanim pa sa'king ala-ala
Pangako mong mananatili ka
Kaya't paglisan mo'y naiwan ang pusong ito
Na ngayo'y bitin na bitin

Chorus-
'Di mo na mababawi'ng iniwang sakit
Sa mga salitang binitiwan mo
Hindi ba't ikaw na rin ang nagpasya, nagtakda
At siyang unang umiwas
Bakit nga ba ako 'yong pinaasa?

Verse-
Nasa aking guniguni malamig mong tinig
Kasabay ng hanging na tumarampi
Na para bang ika'y nariyan sa aking paligid
Tahimik na nagmamasid

Bridge-
Nahulog na'ng mga ulap, buwan at araw, mga bituwin
Ang hinugol na panaho'y na saan?
'Di ba't sayang naman?
Giliw


Made in Lucena City
            
Hard to play? Try these video lessons and learn fast. | Correct




comments powered by Disqus
↑ Back to top | Tablatures and chords are parodies/interpretations of the original songs. You may use it for private study, scholarship, research or language learning purposes only