>
 >
I Think God Can Explain 2

I Think God Can Explain 2 Guitar Tabs

Splender - I Think God Can Explain 2 chords, tabs, tablatures, lyrics

Guitar lessons | Add/correct | Request | Top 50 tabs Artists:  A B C D E F G H I J K L M N O P Q R S T U V W X Y Z 0-9

I Think God Can Explain 2 Guitar Tabs – Splender

CD, Sheet music, Poster

Do you like I Think God Can Explain 2? Share with your friends now
ChordsChords v2TabsTabs v2Tabs v3Tabs v4Ukulele
SONG TITLE   : I Think GOD Can Explain
ARTIST       : Splender

NOTE         : This is an awesome song..!!! It took me
               a while just to finish tab this song because
               my ear can`t clearly figure out the CHORDS..
               Anyway pls. leave a comment if you have some
               Corrections....(~;~)

INTRO-RIFF:

     F#m                   E
e|---0---------------0-------------------------|
B|---5-----------------------------------------|
G|---6----------6------------------------------|
D|---------7-----------------------------------|
A|---------------------------------------------|
E|---------------------------2--h4---4---6--4--|

     A
e|---0-----------------------------------------|
B|---5---------------5/-7\5--------------------|
G|--------------6------------------------------|
D|---------7-----------------------------------|
A|---------------------------------------------|
E|-----------------------------2-h4--4---6--4--|

     F#m                     E
e|---0---------------0-------------0------0----|
B|---5--------------------------10-------9-----|
G|---6----------6------------------------------|
D|---------7-----------------------------------|
A|---------------------------------------------|
E|---------------------------------------------|

     A
e|---0-----------------------------------------|
B|---5----------------5/-7\5-------------------|
G|--------------6-----------------6/-7\6~~-----|
D|---------7-----------------------------------|
A|---------------------------------------------|
E|---------------------------------------------|


VERSE:

F#m         E                A
  There`s a lot of things, I understand

F#m             E                   F#m     E     A
  And there`s a lot of things, that I don`t wanna know.

F#m              E            A
  But you`re the only face, I recognize.

F#m             E                F#m    E      A
  It`s So damn sweet of you, to look me in the eyes.


CHORUS:

Bm              E           A              D     C#m
  It`s alright,..  Im OK,..   I think GOD... can explain

Bm          E              A         D     C#m
  I believe... Im the same,  I get carried away.

Bm              E           A              D     C#m
  It`s alright,..  Im OK,..   I think GOD... can explain

Bm             E            A             D    C#m
  Im releived,.. Im relaxed,... I`ll get over it yet.

REPEAT:
       INTRO-RIFF:


VERSE:

F#m            E               A
  The scent of vaseline in the summertime.

F#m              E         F#m     E    A
  The feel of an ice cube, melting over time.

F#m               E            A
  The world seems bigger, than both of us.

F#m                E          F#m   E    A
  But it seems so small, when I begin to climb.


REPEAT:
       CHORUS

BRIDGE:

  G
e|----------------5----------------5------------5----|
B|----------------3----------------3------------3----|
G|---------------------------------------------------|
D|---------------------------------------------------|
A|---------5------------------5-------------5------\-|
E|---3--------------------3--------------3-----------| \
                                                     \
  A                                                  Repeat
e|----------------7----------------7------------7-- ----| 3x
B|----------------5----------------5------------5-------| /
G|------------------------------------------------------|
D|------------------------------------------------------|
A|---------7------------------7-------------7-----------|
E|---5--------------------5--------------5--------------|

  G
e|----------------5----------------5------------5--|
B|----------------3----------------3------------3--|
G|-------------------------------------------------|
D|-------------------------------------------------|
A|---------5------------------5-------------5------|
E|---3--------------------3--------------3---------|

    D        C#m       Bm        A          G
e|---------------------------------------------------|
B|---------------------------------------------------|
G|--7--------6---------4---------2-------------------|
D|--7--------6---------4---------2----------5--------|
A|--5--------4---------2---------0----------5--------|
E|------------------------------------------3--------|

REPEAT:
       CHORUS:


OUTRO:
      Play the CHORUS chords(--Bm--E--A--D-C#m)

e|-----------------------------------------------------|
B|-----------------------------------------------------|
G|--9----7----6-----4-------------4-h6--6p-4----2--2---|Repeat
D|-----------------------------------------------------| 6x
A|-----------------------------------------------------|
E|-----------------------------------------------------|


e|----------------------------------------------|
B|------------------------10---9----7------5----|
G|--9----7----6-----4---------------------------|
D|----------------------------------------------|
A|----------------------------------------------|
E|----------------------------------------------|

    D        C#m       Bm        A          G
e|------------------------------------------3--------|
B|------------------------------------------3--------|
G|--7--------6---------4---------2----------4--------|
D|--7--------6---------4---------2----------5--------|
A|--5--------4---------2---------0----------5--------|
E|------------------------------------------3--------|


Tablature Legend:

  h      -- hammer on
  p      -- pull off
  b      -- bend
  r      -- bend release
  ===    -- bend hold or maintain
  ^      -- bend a little, or dec/increase the bend slightly
  /,\    -- slide (toward, forward)
  ~      -- let ring
  x      -- Muted string then pluck it
  AH     -- Artificial Harmonic
  TH     -- Tap Harmonic
  NH     -- Natural Harmonic
  PM     -- Palm Muted
  T      -- Tap
  t      -- Use your picking finger to create pull-off's, hammer-on's
  Tr     -- Trill


                Calinan Davao City, Phillipines...





Comments


Popular Splender tabs & chords
Here I Am, There You Go Chords
I Think God Can Explain Chords
I Think God Can Explain 1 Chords
The Loneliest Person I Know Chords
I Think God Can Explain 1 Tabs
I Think God Can Explain 3 Tabs
London Tabs
Wide Awake Tabs
Here I Am There You Go Ukulele
I Think God Can Explain Ukulele


Song lyrics



↑ Back to top | Tablatures and chords are parodies/interpretations of the original songs. You may use it for private study, scholarship, research or language learning purposes only
© 2014 AZChords.com Contact us | Privacy policy | DMCA | Add/correct tabs | Request tabs | Top 50 tabs