array
(
    
'twoprincessolo' => 'twoprincessolo'
    'spindoctors' 
=> 'spindoctors'
)
Two Princes Tabs (ver. 2) by Spin Doctors @ AZ CHORDS.COM
» » »

Two Princes Tabs (ver.2)

Artists:  A B C D E F G H I J K L M N O P Q R S T U V W X Y Z # 

Two Princes Tabs (ver.2)

Spin Doctors
Rating:
0/5 (0 votes)

Hard to play? Try these video lessons and learn fast.
                (Solo)
-------------------------------------------------------------------------------
                            Two Princes-Spin Doctors               zep8001
-------------------------------------------------------------------------------

Two Princes Solo


Tuning:Standard

THIS IS 100% CORRECT

e|--------------------------------|-----------------------------|
B|--------------------------------|-----------------------------|
G|--------------------------------|-----------------------------|
D|-------0---0--3^(4)-0-0-0-------|--0---0-00--3^(4)------------|
A|--4^(5)--5----------------4^(5)-|----5----------------4^(5)---|
E|--------------------------------|-----------------------------|


e|-----------------------------|---------------------|
B|-----------------------------|---------------------|
G|-------------------0---------|-----5-55--7\-7-9-7--|
D|--0---00--3^(4)--0----0--7~--|-[7]-----------------|
A|----5------------------------|---------------------|
E|-----------------------------|---------------------|


e|---------10-----------10--|------------------------------------------|
B|-------------12-12-12-----|--13^(14)--10-10-10-13^(15)-13-12-10------|
G|--9^(11)------------------|-------------------------------------10^--|
D|--------------------------|------------------------------------------|
A|--------------------------|------------------------------------------|
E|--------------------------|------------------------------------------|


e|---------------------------------|---------------------------------------|
B|---------------------------------|---------------------------------------|
G|-[10]----------------------------|---------------------------------12-0--|
D|-------12--12-12-9-9-9-9--12-10--|--10/11-----------------12-14-12-------|
A|---------------------------------|--------12---0--10-12/14---------------|
E|---------------------------------|---------------------------------------|


e|----------------------------------------------------|
B|----------15-------------15-------------------------|
G|--14^(16)----12-0-14^(16)---(16)^(14)-12----12-14---|
D|-----------------------------------------14---------|
A|----------------------------------------------------|
E|----------------------------------------------------|


e|----------------------------------------------------|
B|----------------------------------------------------|
G|--14^(16)--14-13-12-10^-----------------------------|
D|------------------------12-10------------------/12--|
A|------------------------------12-11-10--------------|
E|---------------------------------------13-10\-------|


e|--------------------------------------|
B|-------------------------------15-----|
G|-------12----12-14-12-14^(16)-----12--|
D|-14-12----14--------------------------|
A|--------------------------------------|
E|--------------------------------------|

e|-------------------------------------------------|
B|--------17-----------------------------17^(19)---|
G|-16^(18)--(18)^(16)-14--14-14----14-14-----------|
D|----------------------16-------16----------------|
A|-------------------------------------------------|
E|-------------------------------------------------|


e|--15------------------------------------------------|
B|-----(19)^(17)-15---------15--------------17^(19)---|
G|------------------16^(18)----(18)^(16)-14-----------|
D|----------------------------------------------------|
A|----------------------------------------------------|
E|----------------------------------------------------|


e|---------------------------------------------|------------------------||
B|-^(18)^(19)-^-(18)^(19)-^-(19)^(17)-15-17-15-|-[15]\------------------||
G|---------------------------------------------|------------------------||
D|---------------------------------------------|------------------------||
A|---------------------------------------------|------------------------||
E|---------------------------------------------|------------------------||

ENJOY & PLEASE RATE THIS TAB!!!                         zep8001


| /  slide up
| \  slide down
| h  hammer-on
| p  pull-off
| ~  vibrato
| +  harmonic
| x  Mute note
            
Hard to play? Try these video lessons and learn fast. | Correct




comments powered by Disqus
↑ Back to top | Tablatures and chords are parodies/interpretations of the original songs. You may use it for private study, scholarship, research or language learning purposes only