» » »

Little Bitch Bass tabs (ver.1)

Artists:  A B C D E F G H I J K L M N O P Q R S T U V W X Y Z # 

Little Bitch Bass tabs (ver.1)

Specials
Rating:
5/5 (2 votes)

Hard to play? Try these video lessons and learn fast.
                There are two parts to this song plus the little one two gap.

Intro/Chorus

G|---------------------------------|
D|----------------3-3-3356-6666666-|
A|3-3-3356-6666666-----------------|
E|---------------------------------|

Verse

G|-5-7-8-9-10------|
D|------------5-6-7|
A|3-5-6-7-8--------|
E|-----------3-4-5-|

Thats a 10 not a 1 and a 0. The easiest way to play it is to use your thumb on the lower 
and and your index finger on the higher ones.

There you go.
            
Hard to play? Try these video lessons and learn fast. | Correct




comments powered by Disqus
↑ Back to top | Tablatures and chords are parodies/interpretations of the original songs. You may use it for private study, scholarship, research or language learning purposes only