>
 >
Found

Found Bass Tabs

Span - Found chords, tabs, tablatures, lyrics

Guitar lessons | Add/correct | Request | Top 50 tabs Artists:  A B C D E F G H I J K L M N O P Q R S T U V W X Y Z 0-9

Found Bass Tabs – Span

CD, Sheet music, Poster

Do you like Found? Share with your friends now
Bass TabsTabs
Drop D tuning (Tune the 4th (e) string down a whole step)

Main Riff
G---------------------------------------------------------------------------|
D---------------------------------------------------------------------------|
A---------------------------------------------------------------------------|
D Drum intro 00--00--00--00--00--00--00--00--00--00--00--00xx---------------|

G-----------------------------------------------|
D-----------------------------------------------|
A-----------------------------------------------|
D 00--00xx00--00xx00--00xx00--0000--------------|

Pre chorus
G------------------------------------------------------|
D------------------------------------------------------|
A------------------------------------------------------|
D 6666666655555555--00--00xx00--00xx ------------------|

G-------------------------------|
D-------------------------------|
A-------------------------------|
D 6666666655555555--0-----------|

Repeat Main Riff- There is a fill here, it is:
Fill = D--00-0h3-3h5-/12-12-12-12-12-12

Repeat Pre -chorus - leads into:

Chorus
G---------------------------------|
D---------------------------------|
A -------------3------------------|
D-0-0-3-0-5----0-3-0-5------------|

Post-chorus
G-----------------|
D-----------------|
A--5-5-5-3--------|
D-----------------|

Solo
G-------------------------|
D-------------------------|
A-5555533300000-----------|
D--------------------333--|

Bridge
G-----------------|
D-----------------|
A-----------------|
D--0-3-0-5~-------|
Repeat
Chorus
&
Solo riff

End on :
D-0-





Comments


Popular Span tabs & chords
Baby's Come Back Tabs
Don't Think The Way They Do Tabs
Don't Think The Way They Do 1 Tabs
Found Tabs
Papa Tabs


Song lyrics



↑ Back to top | Tablatures and chords are parodies/interpretations of the original songs. You may use it for private study, scholarship, research or language learning purposes only
© 2014 AZChords.com Contact us | Privacy policy | DMCA | Add/correct tabs | Request tabs | Top 50 tabs