» » »

Span, Found Tabs (ver.1)

Artists:  A B C D E F G H I J K L M N O P Q R S T U V W X Y Z # 

Found Tabs (ver.1)

Span Tabs
 Rating:
4/5 (4 votes)
Found lessons Tabs too difficult? Try these video lessons and learn fast
                -------------------------------------------------------------------------------
-------------------------------------------------------------------------------

Tuning: Drop Db (Db Ab Db Gb Bb eb)

Verse

eb|-------------------------|
Bb|-------------------------|
Gb|-------------------------|
Db|--0-0---0-0---0-0---0-0--|
Ab|--0-0---0-0---0-0---0-0--|
Db|--0-0---0-0---0-0---0-0--|

Pre-Chorus

eb|---------------------------------------------------------------------------|
Bb|---------------------------------------------------------------------------|
Gb|---------------------------------------------------------------------------|
Db|--5-5-5-5-5-5-5-5-3-3-3-3-3-3-3-3--0-0-x-x--x-0-0-x-x--x-0-0-x-x--x-0-0----|
Ab|--5-5-5-5-5-5-5-5-3-3-3-3-3-3-3-3--0-0-x-x--x-0-0-x-x--x-0-0-x-x--x-0-0----|
Db|--5-5-5-5-5-5-5-5-3-3-3-3-3-3-3-3--0-0-x-x--x-0-0-x-x--x-0-0-x-x--x-0-0----| 2x

at the second time, play the last chord just once and let ring.

Verse
Pre-Chorus

Chorus

eb|------------------------|
Bb|------------------------|
Gb|------------------------|
Db|--0-0-------------------|
Ab|--0-0--------3----------|
Db|--0-0--3-4-5----3-5-3~--| 4x

eb|------------|
Bb|------------|
Gb|---------5--|
Db|--0-0--x-5--|
Ab|--0-0--x-3--|
Db|--0-0--x----| 7x

then:

eb|-----|
Bb|-----|
Gb|-----|
Db|--0--|
Ab|--0--|
Db|--0--|

Bridge

[That's actually the Bass.. The guitar just plays formations of the same chords on lower 
strings]

eb|---------------------------------------------------------------------------|
Bb|---------------------------------------------------------------------------|
Gb|---------------------------------------------------------------------------|
Db|---------------------------------------------------------------------------|
Ab|------1/2--3--5--5-5--0-0--5-5---5-3-0-------------------------------------|
Db|--5------------------------------------6-5---------------------------------| 2x

eb|---------------------------------------------------------------------------|
Bb|---------------------------------------------------------------------------|
Gb|---------------------------------------------------------------------------|
Db|---------------------------------------------------------------------------|
Ab|--------------5--5-5--0-0--5-5---5-3-0-------------------------------------|
Db|--5---3--------------------------------6-5---------------------------------|

eb|---------------------------------------------------------------------------|
Bb|---------------------------------------------------------------------------|
Gb|---------------------------------------------------------------------------|
Db|---------------------------------3-4---------------------------------------|
Ab|------1/2--3--5--5-5--0-0--5-5-------5-5-3-0-------------------------------|
Db|--5------------------------------------------6-5---------------------------|

eb|---------|
Bb|---------|
Gb|---------|
Db|---------|
Ab|---------|
Db|--5---3--|

Chorus [play the first part of the chorus 8 times instead of 4]


| /  slide
| ~  vibrato
| x  Mute note
===============================================================================
            
Submit corrections

comments powered by Disqus
↑ Back to top | Span Tabs for Found. Lyrics for acoustic guitar and electric guitar. Tablatures and chords are parodies/interpretations of the original songs. You may use it for private study, scholarship, research or language learning purposes only