» » »

Smash Mouth, Fallen Horses Tabs (ver.1)

Artists:  A B C D E F G H I J K L M N O P Q R S T U V W X Y Z # 

Fallen Horses Tabs (ver.1)

Smash Mouth Tabs
 Rating:
4/5 (4 votes)
Fallen Horses lessons Tabs too difficult? Try these video lessons and learn fast
                
BAND: Smash Mouth

Tune half a step down (low to high Eb, Ab, Db, Gb, Bb, Eb)

LEAD GUITAR: Heavy tremolo and reverb effect
RHYTHM GUITAR: Clean

Intro (2x):
LEAD GUITAR:
|----------------|-----------|----------------|-----------------|
|----------------|-----------|----------------|-----------------|
|----------------|-----------|----------------|-----------------|
|-7-6-2----------|-----------|----------------|-----------------|
|-------4--2-----|-------2-5-|-2--------------|-----------------|
|-------------5--|-4--5------|----------------|/7--8-9--8--7----|
  E E E Q  Q  Q    Q  Q  E Q   W                Q  E Q  Q  E

RHYTHM GUITAR:
Does upstrokes of a Bb chord. Continue playing this offbeat
pattern during the rest of the intro.
|----------------|-----------|----7-----7---7-|-----7-----7---7-|
|----------------|-----------|----7-----7---7-|-----7-----7---7-|
|----------------|-----------|----8-----8---8-|-----8-----8---8-|
|----------------|-----------|----9-----9---9-|-----9-----9---9-|
|----------------|-----------|----------------|-----------------|
|----------------|-----------|----------------|-----------------|
                                  E     E   E     E    E E

Verse 1 (2x):
RHYTHM GUITAR
|----7-----7---7-|----7-----7---7-|----7-----7---7-|----7-----7---7-|
|----7-----7---7-|----7-----7---7-|----7-----7---7-|----7-----7---7-|
|----8-----8---8-|----8-----8---8-|----8-----8---8-|----8-----8---8-|
|----9-----9---9-|----9-----9---9-|----9-----9---9-|----9-----9---9-|
|----------------|----------------|----------------|----------------|
|----------------|----------------|----------------|----------------|
|----------------|----------------|----------------|----------------|

Pre-Chorus:
"Could you tell me..."
LEAD GUITAR
|----------------|----------------|----------------|----------|
|-----6----------|-----9----------|----------------|----------|
|---5------------|---8------------|----------------|----------|
|-3--------------|-6--------------|-7-6-2----------|----------|
|----------------|----------------|-------4--2-----|------2-5-|
|----------------|----------------|-------------5--|4--5------|

|----------------|----------------|----------------|----------|
|-----6----------|-----9----------|---8------------|----------|
|---5------------|---8------------|-----7----------|----------|
|-3--------------|-6--------------|-5--------------|----------|
|----------------|----------------|----------------|----------|
|----------------|----------------|----------------|----------|

Verse 2 (2x):
LEAD GUITAR
|----------------|----------------|----------------|----------------|
|----------------|----------------|----------------|----------------|
|----------------|----------------|----------------|----------------|
|----------------|----------------|----------------|----------------|
|----------------|----------------|----------------|----------------|
|0---------------|----------------|/7--------------|/7--8-9--8--7---|

RHYTHM GUITAR
|----7-----7---7-|----7-----7---7-|----7-----7---7-|----7-----7---7-|
|----7-----7---7-|----7-----7---7-|----7-----7---7-|----7-----7---7-|
|----8-----8---8-|----8-----8---8-|----8-----8---8-|----8-----8---8-|
|----9-----9---9-|----9-----9---9-|----9-----9---9-|----9-----9---9-|
|----------------|----------------|----------------|----------------|
|----------------|----------------|----------------|----------------|
|----------------|----------------|----------------|----------------|

Pre-Chorus:
"Would you help me..."
LEAD GUITAR
|----------------|----------------|----------------|----------|
|-----6----------|-----9----------|----------------|----------|
|---5------------|---8------------|----------------|----------|
|-3--------------|-6--------------|-7-6-2----------|----------|
|----------------|----------------|-------4--2-----|------2-5-|
|----------------|----------------|-------------5--|4--5------|

|----------------|----------------|----------------|----------|
|-----6----------|-----9----------|---8------------|----------|
|---5------------|---8------------|-----7----------|----------|
|-3--------------|-6--------------|-5--------------|----------|
|----------------|----------------|----------------|----------|
|----------------|----------------|----------------|----------|

Chorus (2x):
LEAD GUITAR
|----------------|----------------|----------------|----------------|
|----------------|----------------|----------------|----------------|
|----------------|----------------|----------------|----------------|
|----------------|----------------|----------------|----------------|
|----------------|----------------|----------------|----------------|
|0---------------|0---------------|7---------------|7---------------|

RHYTHM GUITAR
|----7-----7---7-|----7-----7---7-|----7-----7---7-|----7-----7---7-|
|----7-----7---7-|----7-----7---7-|----7-----7---7-|----7-----7---7-|
|----8-----8---8-|----8-----8---8-|----8-----8---8-|----8-----8---8-|
|----9-----9---9-|----9-----9---9-|----9-----9---9-|----9-----9---9-|
|----------------|----------------|----------------|----------------|
|----------------|----------------|----------------|----------------|
|----------------|----------------|----------------|----------------|

Break:
Same as chorus and organ does lead riff from intro.

Verse 3 (2x):
LEAD GUITAR
|----------------|----------------|----------------|----------------|
|----------------|----------------|----------------|----------------|
|----------------|----------------|----------------|----------------|
|----------------|----------------|----------------|----------------|
|----------------|----------------|----------------|----------------|
|0---------------|-7--8-9--8--7---|0---------------|-7--8-9--8--7---|

RHYTHM GUITAR
|----7-----7---7-|----7-----7---7-|----7-----7---7-|----7-----7---7-|
|----7-----7---7-|----7-----7---7-|----7-----7---7-|----7-----7---7-|
|----8-----8---8-|----8-----8---8-|----8-----8---8-|----8-----8---8-|
|----9-----9---9-|----9-----9---9-|----9-----9---9-|----9-----9---9-|
|----------------|----------------|----------------|----------------|
|----------------|----------------|----------------|----------------|
|----------------|----------------|----------------|----------------|

Pre-Chorus:
"Could you tell me..."
LEAD GUITAR
|----------------|----------------|----------------|----------|
|-----6----------|-----9----------|----------------|----------|
|---5------------|---8------------|----------------|----------|
|-3--------------|-6--------------|-7-6-2----------|----------|
|----------------|----------------|-------4--2-----|------2-5-|
|----------------|----------------|-------------5--|4--5------|

|----------------|----------------|----------------|----------|
|-----6----------|-----9----------|---8------------|----------|
|---5------------|---8------------|-----7----------|----------|
|-3--------------|-6--------------|-5--------------|----------|
|----------------|----------------|----------------|----------|
|----------------|----------------|----------------|----------|

Chorus (2x):
LEAD GUITAR
|----------------|----------------|----------------|----------------|
|----------------|----------------|----------------|----------------|
|----------------|----------------|----------------|----------------|
|----------------|----------------|----------------|----------------|
|----------------|----------------|----------------|----------------|
|0---------------|0---------------|7---------------|7---------------|

RHYTHM GUITAR
|----7-----7---7-|----7-----7---7-|----7-----7---7-|----7-----7---7-|
|----7-----7---7-|----7-----7---7-|----7-----7---7-|----7-----7---7-|
|----8-----8---8-|----8-----8---8-|----8-----8---8-|----8-----8---8-|
|----9-----9---9-|----9-----9---9-|----9-----9---9-|----9-----9---9-|
|----------------|----------------|----------------|----------------|
|----------------|----------------|----------------|----------------|
|----------------|----------------|----------------|----------------|

Outro:
Same as break.
            
Submit corrections

comments powered by Disqus
↑ Back to top | Smash Mouth Tabs for Fallen Horses. Lyrics for acoustic guitar and electric guitar. Tablatures and chords are parodies/interpretations of the original songs. You may use it for private study, scholarship, research or language learning purposes only