» » »

Infinity Guitars Tabs (ver.2)

Artists:  A B C D E F G H I J K L M N O P Q R S T U V W X Y Z # 

Infinity Guitars Tabs (ver.2)

Sleigh Bells
Rating:
0/5 (0 votes)

Hard to play? Try these video lessons and learn fast.
                
Intro/verse 1

played when Alexis sings "infinity guitars go head/your heart"

e ----------------------|
B ----------------------|
G --------------7-6-----|
D -5/8-8-8-5/-8-7-6-----|
A -5/8-8-8-5/-8-5-4-----|
E -3/6-6-6-3/-6---------|

Ah-ah-ah 
Deaf chords, dead ends 
Sling set can't meet their demands 
Devil horns, best friends 
Infinity guitars, go head 
Ah-ah-ah 

Street wars, straight men 
Cowboys, Indians 
Red souls, red friends 
Infinity guitars, your heart 
Ah-ah-ah 

break (no guitar)

Ah-ah-ah-ah ah-ah-ah-ah 
Ah-ah-ah-ah ah-ah-ah-ah 
Ah-ah-ah-ah ah-ah-ah-ah 
Ah-ah-ah-ah ah-ah-ah-ah 

Ah-ah-ah 

verse 2

e ---------------------||
B ---------------------||
G ---------------------||
D -8--8-8--8--8-8--8-8-||x3
A -8--8-8--8--8-8--8-8-||
E -6--6-6--6--6-6--6-6-||

e ----------------------|
B ----------------------|
G --------------7-6-----|
D -5/8-8-8-5/-8-7-6-----|
A -5/8-8-8-5/-8-5-4-----|
E -3/6-6-6-3/-6---------|

Deaf chords, dead ends 
Sling set can't meet their demands 
Devil horns, best friends 
Infinity guitars, your heart 
Ah-ah-ah 

Street wars, straight men 
Cowboys, Indians 
Red souls, red friends 
Infinity guitars, your heart 
Ah-ah-ah 

(BREAK)

last verse (Heavy distortion)

e ---------------------||
B ---------------------||
G ---------------------||
D -8--8-8--8--8-8--8-8-||x3
A -8--8-8--8--8-8--8-8-||
E -6--6-6--6--6-6--6-6-||

e ---------------------------------|
B ---------------------------------|
G --------------7-6--9-8--10-9--10-|
D -5/8-8-8-5/-8-7-6--9-8--10-9--10-|
A -5/8-8-8-5/-8-5-4--7-6--8--7--8--|
E -3/6-6-6-3/-6--------------------|

Deaf chords, dead ends 
Infinity guitars, your heart 
Uh-uh uh-uh uh-uh 
Devil horns, best friends 
Infinity guitars, your heart 
Uh-uh uh-uh uh-uh 
Street wars, straight men 
Infinity guitars, your heart 
Uh-uh uh-uh uh-uh 
Cowboys, Indians 
Infinity guitars, your heart 
Uh-uh uh-uh uh-uh 
Red souls, red friends 
Infinity guitars, your heart 

Infinity guitars, go head

weird vocal bit (ah-ah-ah) between guitar breaks...if you want to play it:

e ----------|
B -------11-|
G -10\7-----|
D ----------|
A ----------|
E ----------|

Pretty simple. Sleigh Bells are kewl.
            
Hard to play? Try these video lessons and learn fast. | Correct




comments powered by Disqus
↑ Back to top | Tablatures and chords are parodies/interpretations of the original songs. You may use it for private study, scholarship, research or language learning purposes only