» » »

Sleeping With Sirens, Stomach Tied In Knots Tabs (ver.3)

Artists:  A B C D E F G H I J K L M N O P Q R S T U V W X Y Z # 

Stomach Tied In Knots Tabs (ver.3)

Sleeping With Sirens Tabs
 Rating:
4/5 (4 votes)
Stomach Tied In Knots lessons Tabs too difficult? Try these video lessons and learn fast
1
                
All of the tabs were close, but none were completely accurate.


Drop D (eBGDAD)

"...stomach's tied in knots..."
"You see the problem isn't you, it's me I know..."

e|-----------|
B|-----------|
G|--6--9--2--| x2
D|--4--7--0--|
A|--4--7--0--|
D|--4--7--0--|

"...away. Mm, I get so afraid, oh no."

e|---------------|
B|---------------|
G|--9--11--6-----| x1
D|--7---9--6--0~-|
A|--7---9--4--0~-|
D|--7---9--4--0~-|

"...without you now, oh, oh."

e|-----------|
B|-----------|
G|--6--9--2--| x4
D|--4--7--0--|
A|--4--7--0--|
D|--4--7--0--|

"...have myself to blame, but do you think we could start again?"

e|--------------|
B|--------------|
G|--6--2--9-----| x1
D|--4--0--7--0--|
A|--4--0--7--0--|
D|--4--0--7--0--|

"...without you."

e|-----------|
B|-----------|
G|--6--9--2--| x2
D|--4--7--0--|
A|--4--7--0--|
D|--4--7--0--|

"...stomach’s tied in knots..."
"See the problem isn't you, it's me I know..."

e|-----------|
B|-----------|
G|--6--9--2--| x2
D|--4--7--0--|
A|--4--7--0--|
D|--4--7--0--|

"...away. Mm, I get so afraid, oh no."

e|---------------|
B|---------------|
G|--6--11--6-----| x1
D|--4---9--4--0~-|
A|--4---9--4--0~-|
D|--4---9--4--0~-|

"...without you now, oh, oh."

e|-----------|
B|-----------|
G|--6--9--2--| x4
D|--4--7--0--|
A|--4--7--0--|
D|--4--7--0--|

"...have myself to blame, but do you think we could start again?"

e|--------------|
B|--------------|
G|--6--2--9-----| x4
D|--4--2--7--0--|
A|--4--0--7--0--|
D|--4--0--7--0--|

[claps] x4

"...without you now, oh, oh."

e|-----------|
B|-----------|
G|--6--9--2--| x8
D|--4--7--0--|
A|--4--7--0--|
D|--4--7--0--|

"...without you, oh."

e|--------|
B|--------|
G|--6-----| x1
D|--4--0--|
A|--4--0--|
D|--4--0--|
            
Submit corrections

comments powered by Disqus
↑ Back to top | Sleeping With Sirens Tabs for Stomach Tied In Knots. Lyrics for acoustic guitar and electric guitar. 1 Tablatures and chords are parodies/interpretations of the original songs. You may use it for private study, scholarship, research or language learning purposes only