» » »

All My Heart Tabs (ver.3)

Artists:  A B C D E F G H I J K L M N O P Q R S T U V W X Y Z # 

All My Heart Tabs (ver.3)

Sleeping With Sirens
Rating:
0/5 (0 votes)

Tabs too difficult? Try these video lessons and learn fast.
                -------------------------------------------------------------------------------
                          All My Heart Acoustic - Sleeping With Sirens
-------------------------------------------------------------------------------


Tuning: Drop C
        No capo

Note: pm means "palm mute"

I worked on this tab for days, so I am sure that it is 99.7% accurate. However, if you 
happen to notice something that you do not agree with, please say so in the comments and 
I'll fix it.

Intro:

D|-2--0--3--2--0---2--0--3--2--0---2--0--3--2--0---2--0--2--|
A|-3--3--3--3--3---3--3--3--3--3---3--3--3--3--3---3--3--3--|
F|-2--2--2--2--2---0--0--0--0--0---2--2--2--2--2---0--0--0--|
c|-0--0--0--0--0---0--0--0--0--0---0--0--0--0--0---0--0--0--|
G|-0--0--0--0--0---2--2--2--2--2---0--0--0--0--0---2--2--2--|
C|-x--x--x--x--x---x--x--x--x--x---x--x--x--x--x---x--x--x--|


Verse 1 (play twice):

  pm pm     pm pm pm   pm pm     pm pm     pm pm     pm pm pm   pm pm
D|------2-0----------3-------3-2-------0-2-------2-0----------3-------3-2--|
A|------3-3----------3-------3-3-------3-3-------3-3----------3-------3-3--|
F|------2-2----------2-------2-2-------2-2-------0-0----------0-------0-0--|
c|------0-0----------0-------0-0-------0-0-------0-0----------0-------0-0--|
G|------0-0----------0-------0-0-------0-0-------2-2----------2-------2-2--|
C|------x-x----------x-------x-x-------x-x-------x-x----------x-------x-x--|

  pm pm     pm pm     pm pm pm   pm pm     pm pm     pm pm   pm pm   pm
D|------0-2-------2-0----------3-------3-2-------0-2-------2-------2----2--|
A|------3-3-------3-3----------3-------3-3-------3-3-------3-------3----3--|
F|------0-0-------2-2----------2-------2-2-------2-2-------0-------0----0--|
c|------0-0-------0-0----------0-------0-0-------0-0-------0-------0----0--|
G|------2-2-------0-0----------0-------0-0-------0-0-------2-------2----2--|
C|------x-x-------x-x----------x-------x-x-------x-x-------x-------x----x--|


Chorus:

D|-2--0--3--2--0---2--0--3--2--0---0---3--|
A|-3--3--3--3--3---3--3--3--3--3---3---3--|
F|-2--2--2--2--2---0--0--0--0--0---0---0--|   Let last note ring.
c|-0--0--0--0--0---0--0--0--0--0---2---2--|
G|-0--0--0--0--0---2--2--2--2--2---2---2--|
C|-x--x--x--x--x---x--x--x--x--x---x---3--|


Instrumental (it's the same as the into):

D|-2--0--3--2--0---2--0--3--2--0---2--0--3--2--0---2--0--2--|
A|-3--3--3--3--3---3--3--3--3--3---3--3--3--3--3---3--3--3--|
F|-2--2--2--2--2---0--0--0--0--0---2--2--2--2--2---0--0--0--|
c|-0--0--0--0--0---0--0--0--0--0---0--0--0--0--0---0--0--0--|
G|-0--0--0--0--0---2--2--2--2--2---0--0--0--0--0---2--2--2--|
C|-x--x--x--x--x---x--x--x--x--x---x--x--x--x--x---x--x--x--|


Verse 2 (play twice):

  pm pm     pm pm pm   pm pm     pm pm     pm pm     pm pm pm   pm pm
D|------2-0----------3-------3-2-------0-2-------2-0----------3-------3-2--|
A|------3-3----------3-------3-3-------3-3-------3-3----------3-------3-3--|
F|------2-2----------2-------2-2-------2-2-------0-0----------0-------0-0--|
c|------0-0----------0-------0-0-------0-0-------0-0----------0-------0-0--|
G|------0-0----------0-------0-0-------0-0-------2-2----------2-------2-2--|
C|------x-x----------x-------x-x-------x-x-------x-x----------x-------x-x--|

  pm pm     pm pm     pm pm pm   pm pm     pm pm     pm pm   pm pm   pm
D|------0-2-------2-0----------3-------3-2-------0-2-------2-------2----2--|
A|------3-3-------3-3----------3-------3-3-------3-3-------3-------3----3--|
F|------0-0-------2-2----------2-------2-2-------2-2-------0-------0----0--|
c|------0-0-------0-0----------0-------0-0-------0-0-------0-------0----0--|
G|------2-2-------0-0----------0-------0-0-------0-0-------2-------2----2--|
C|------x-x-------x-x----------x-------x-x-------x-x-------x-------x----x--|


Chorus (play twice):

D|-2--0--3--2--0---2--0--3--2--0---0---3--|
A|-3--3--3--3--3---3--3--3--3--3---3---3--|
F|-2--2--2--2--2---0--0--0--0--0---0---0--|
c|-0--0--0--0--0---0--0--0--0--0---2---2--|
G|-0--0--0--0--0---2--2--2--2--2---2---2--|
C|-x--x--x--x--x---x--x--x--x--x---x---3--|


Bridge:

D|-0--0--2--2--|
A|-1--0--3--3--|
F|-0--2--2--0--|   Repeat three times
c|-2--0--0--2--|
G|-2--2--0--0--|
C|-x--3--x--x--|

D|-0--0---2--3--2--3--|
A|-3--0---3--3--3--3--|
F|-0--2---0--0--0--0--|
c|-2--0---2--2--2--2--|
G|-2--2---0--0--0--0--|
C|-x--3---x--x--x--x--|


Chorus:

D|-2--2--2--2--|
A|-3--3--3--3--|
F|-2--0--2--0--|   strum each chord once with the exception of the last one
c|-0--0--0--0--|
G|-0--2--0--2--|
C|-x--x--x--x--|

D|-2--0--3--2--0---2--0--3--2--0---0---3--|
A|-3--3--3--3--3---3--3--3--3--3---3---3--|   Play twice
F|-2--2--2--2--2---0--0--0--0--0---0---0--|   Let last chord ring
c|-0--0--0--0--0---0--0--0--0--0---2---2--|
G|-0--0--0--0--0---2--2--2--2--2---2---2--|
C|-x--x--x--x--x---x--x--x--x--x---x---3--|



************************************

| /   slide up
| \   slide down
| h   hammer-on
| p   pull-off
| ~   vibrato
| +   harmonic
| x   Mute note
| b   Bend
| pb  Pre-bend
| br  Bend release
| pbr Pre-bend release
| brb Bend release bend

************************************
            
Tabs too difficult? Try these video lessons and learn fast.




comments powered by Disqus
↑ Back to top | Tablatures and chords are parodies/interpretations of the original songs. You may use it for private study, scholarship, research or language learning purposes only