>
 >
All My Heart

All My Heart Guitar Tabs

Sleeping With Sirens - All My Heart chords, tabs, tablatures, lyrics

Guitar lessons | Add/correct | Request | Top 50 tabs Artists:  A B C D E F G H I J K L M N O P Q R S T U V W X Y Z 0-9

All My Heart Guitar Tabs – Sleeping With Sirens

CD, Sheet music, Poster

Do you like All My Heart? Share with your friends now
ChordsChords v2Chords v3TabsTabs v2Tabs v3UkuleleUkulele v2
All My Heart  Sleeping With Sirens
Tuning- [CGCFAD]
Intro:
1 |--2---2---2---0---0---0---0---3-------------|
  |--3---3---3---3---3---3---3---3-------------|
  |--2---2---2---2---2--2---2---2-------------|
  |--0---0---0---0---0---0---0---0-------------|
  |--------------------------------------------|
  |--------------------------------------------|

2  |--3---3---3---2---2---20---0---------|
   |--3---3---3---3---3---33---3---------|
   |--2---2---2---2---2---22---2---------|
   |--0---0---0---0---0---00---0---------|
   |--------------------------------------|
   |--------------------------------------|

3  |--2---2---2---0---0---0---0---3------------|
   |--3---3---3---3---3---3---3---3------------|
   |-------------------------------------------|
   |-------------------------------------------|
   |--2---2---2---2---2---2---2---2------------|
   |-------------------------------------------|


4  |--3---3---3---2---2---2---0---0-----------|
   |--3---3---3---3---3---3---3---3-----------|
   |------------------------------------------|
   |------------------------------------------|
   |--2---2---2---2---2---2---2---2-----------|
   |------------------------------------------|


5 |--2---2---2---0---0---0---0---3-------------|
  |--3---3---3---3---3---3---3---3-------------|
  |--2---2---2---2---2--2---2---2-------------|
  |--0---0---0---0---0---0---0---0-------------|
  |--------------------------------------------|
  |--------------------------------------------|

6  |--3---3---3---2---2---20---0---------|
   |--3---3---3---3---3---33---3---------|
   |--2---2---2---2---2---22---2---------|
   |--0---0---0---0---0---00---0---------|
   |--------------------------------------|
   |--------------------------------------|

7  |--2---2---2---2---2---2---2---2---------------|
   |--3---3---3---3---3---3---3---3---------------|
   |----------------------------------------------|
   |----------------------------------------------|
   |--2---2---2---2---2---2---2---2---------------|
   |----------------------------------------------|

Verse:
1 |--2---2---2---0---0---0---0---3-------------|
  |--3---3---3---3---3---3---3---3-------------|
  |--2---2---2---2---2--2---2---2-------------|
  |--0---0---0---0---0---0---0---0-------------|
  |--------------------------------------------|
  |--------------------------------------------|


2  |--3---3---3---2---2---20---0---------|
   |--3---3---3---3---3---33---3---------|
   |--2---2---2---2---2---22---2---------|
   |--0---0---0---0---0---00---0---------|
   |--------------------------------------|
   |--------------------------------------|

3  |--2---2---2---0---0---0---0---3------------|
   |--3---3---3---3---3---3---3---3------------|
   |-------------------------------------------|
   |-------------------------------------------|
   |--2---2---2---2---2---2---2---2------------|
   |-------------------------------------------|


4  |--3---3---3---2---2---2---0---0-----------|
   |--3---3---3---3---3---3---3---3-----------|
   |------------------------------------------|
   |------------------------------------------|
   |--2---2---2---2---2---2---2---2-----------|
   |------------------------------------------|


5 |--2---2---2---0---0---0---0---3-------------|
  |--3---3---3---3---3---3---3---3-------------|
  |--2---2---2---2---2--2---2---2-------------|
  |--0---0---0---0---0---0---0---0-------------|
  |--------------------------------------------|
  |--------------------------------------------|




6  |--3---3---3---2---2---20---0---------|
   |--3---3---3---3---3---33---3---------|
   |--2---2---2---2---2---22---2---------|
   |--0---0---0---0---0---00---0---------|
   |--------------------------------------|
   |--------------------------------------|

7  |--2---2---2---2---2---2---2---2---------------|
   |--3---3---3---3---3---3---3---3---------------|
   |----------------------------------------------|
   |----------------------------------------------|
   |--2---2---2---2---2---2---2---2---------------|
   |----------------------------------------------|

Chorus
1 |--2---2---2---0---0---0---0---3-------------|
  |--3---3---3---3---3---3---3---3-------------|
  |--2---2---2---2---2--2---2---2-------------|
  |--0---0---0---0---0---0---0---0-------------|
  |--------------------------------------------|
  |--------------------------------------------|

2  |--3---3---3---2---2---20---0---------|
   |--3---3---3---3---3---33---3---------|
   |--2---2---2---2---2---22---2---------|
   |--0---0---0---0---0---00---0---------|
   |--------------------------------------|
   |--------------------------------------|


3  |--2---2---2---0---0---0---0---3------------|
   |--3---3---3---3---3---3---3---3------------|
   |-------------------------------------------|
   |-------------------------------------------|
   |--2---2---2---2---2---2---2---2------------|
   |-------------------------------------------|
End of Chorus: Em G
Intro:
1 |--2---2---2---0---0---0---0---3-------------|
  |--3---3---3---3---3---3---3---3-------------|
  |--2---2---2---2---2--2---2---2-------------|
  |--0---0---0---0---0---0---0---0-------------|
  |--------------------------------------------|
  |--------------------------------------------|

2  |--3---3---3---2---2---20---0---------|
   |--3---3---3---3---3---33---3---------|
   |--2---2---2---2---2---22---2---------|
   |--0---0---0---0---0---00---0---------|
   |--------------------------------------|
   |--------------------------------------|

3  |--2---2---2---0---0---0---0---3------------|
   |--3---3---3---3---3---3---3---3------------|
   |-------------------------------------------|
   |-------------------------------------------|
   |--2---2---2---2---2---2---2---2------------|
   |-------------------------------------------|


4  |--3---3---3---2---2---2---0---0-----------|
   |--3---3---3---3---3---3---3---3-----------|
   |------------------------------------------|
   |------------------------------------------|
   |--2---2---2---2---2---2---2---2-----------|
   |------------------------------------------|


5 |--2---2---2---0---0---0---0---3-------------|
  |--3---3---3---3---3---3---3---3-------------|
  |--2---2---2---2---2--2---2---2-------------|
  |--0---0---0---0---0---0---0---0-------------|
  |--------------------------------------------|
  |--------------------------------------------|

6  |--3---3---3---2---2---20---0---------|
   |--3---3---3---3---3---33---3---------|
   |--2---2---2---2---2---22---2---------|
   |--0---0---0---0---0---00---0---------|
   |--------------------------------------|
   |--------------------------------------|

7  |--2---2---2---2---2---2---2---2---------------|
   |--3---3---3---3---3---3---3---3---------------|
   |----------------------------------------------|
   |----------------------------------------------|
   |--2---2---2---2---2---2---2---2---------------|
   |----------------------------------------------|




Verse:
1 |--2---2---2---0---0---0---0---3-------------|
  |--3---3---3---3---3---3---3---3-------------|
  |--2---2---2---2---2--2---2---2-------------|
  |--0---0---0---0---0---0---0---0-------------|
  |--------------------------------------------|
  |--------------------------------------------|

2  |--3---3---3---2---2---20---0---------|
   |--3---3---3---3---3---33---3---------|
   |--2---2---2---2---2---22---2---------|
   |--0---0---0---0---0---00---0---------|
   |--------------------------------------|
   |--------------------------------------|

3  |--2---2---2---0---0---0---0---3------------|
   |--3---3---3---3---3---3---3---3------------|
   |-------------------------------------------|
   |-------------------------------------------|
   |--2---2---2---2---2---2---2---2------------|
   |-------------------------------------------|


4  |--3---3---3---2---2---2---0---0-----------|
   |--3---3---3---3---3---3---3---3-----------|
   |------------------------------------------|
   |------------------------------------------|
   |--2---2---2---2---2---2---2---2-----------|
   |------------------------------------------|


5 |--2---2---2---0---0---0---0---3-------------|
  |--3---3---3---3---3---3---3---3-------------|
  |--2---2---2---2---2--2---2---2-------------|
  |--0---0---0---0---0---0---0---0-------------|
  |--------------------------------------------|
  |--------------------------------------------|

6  |--3---3---3---2---2---20---0---------|
   |--3---3---3---3---3---33---3---------|
   |--2---2---2---2---2---22---2---------|
   |--0---0---0---0---0---00---0---------|
   |--------------------------------------|
   |--------------------------------------|

7  |--2---2---2---2---2---2---2---2---------------|
   |--3---3---3---3---3---3---3---3---------------|
   |----------------------------------------------|
   |----------------------------------------------|
   |--2---2---2---2---2---2---2---2---------------|
   |----------------------------------------------|    PLAY TWICE
Chorus:
1 |--2---2---2---0---0---0---0---3-------------|
  |--3---3---3---3---3---3---3---3-------------|
  |--2---2---2---2---2--2---2---2-------------|
  |--0---0---0---0---0---0---0---0-------------|
  |--------------------------------------------|
  |--------------------------------------------|



2  |--3---3---3---2---2---20---0---------|
   |--3---3---3---3---3---33---3---------|
   |--2---2---2---2---2---22---2---------|
   |--0---0---0---0---0---00---0---------|
   |--------------------------------------|
   |--------------------------------------|


3  |--2---2---2---0---0---0---0---3------------|
   |--3---3---3---3---3---3---3---3------------|
   |-------------------------------------------|
   |-------------------------------------------|
   |--2---2---2---2---2---2---2---2------------|
   |-------------------------------------------|
End of Chorus: Em G        (PLAY TWICE)
Bridge:
|--2--------3-----------------|
|--3--------------------------|
|-----------------------------|
|------2----------------------|  (PLAY 4x)
|--2---2----2-----------------|
|-----------3-----------------|
Outro:
1 |--2---2---2---0---0---0---0---3-------------|
  |--3---3---3---3---3---3---3---3-------------|
  |--2---2---2---2---2--2---2---2-------------|
  |--0---0---0---0---0---0---0---0-------------|
  |--------------------------------------------|
  |--------------------------------------------|

2  |--3---3---3---2---2---20---0---------|
   |--3---3---3---3---3---33---3---------|
   |--2---2---2---2---2---22---2---------|
   |--0---0---0---0---0---00---0---------|     (PLAY 2x)
   |--------------------------------------|
   |--------------------------------------|

Lyrics:
There's so many things that I could say
But I'm sure it would come out all wrong
You got something that I can't explain,
Still try and try and let you know

That first summer we spent's one we'll never forget,
Looking for any kind of reason to escape all the mess that
We thought was what made us
Ain't it funny now? We can see
We're who we're meant to be

You still have all of my
You still have all of my
You still have all my heart

Ooh ooh ooh ooh
Ooh ooh ooh oooh
Ooh ooh ooh ooh
Ooh ooh ooh oooh...

There's too many times I have to say
I could have been better and stronger for you and me
You always make me feel okay
Those late summers we spent, stay up talking all night
I'd ask "you think we'd ever make it?"
You'd say "I'm sure if it's right"
Ain't it funny to think just how stupid I used to be
Hope you always believe

You still have all of my
You still have all of my
You still have all my heart

You still have all of my
You still have all of my
You still have all my heart

Let them talk and talk and talk
Let them say what they want
We will laugh at the thought they don't know what we've got
Every year that goes by, a year older we are
You'll still be beautiful then, bless your beautiful heart

They'll talk and talk and talk
How crazy is it?
Someone could waste their whole life, helplessly,
Just patiently waiting for a love like you and me

You still have all of my
You still have all of my
You still have all my heart

You still have all of my heart
You still have all of my (you still have all of my heart)
You still have all of my (you still have all of my heart)
You still have all of my heart (you still have all of my heart)

You still have all of my(I've been waiting my whole life)
You still have all of my
(For someone to save me still can't believe that you're mine)
You still have all of my heart





Comments


Popular Sleeping With Sirens tabs & chords
All My Heart Chords
Don't Fall Asleep At The Helm Chords
Roger Rabbit Chords
Congratulations Tabs
Do It Now Remember It Later Tabs
Heaven Again Tabs
If Im James Dean Then Youre Audrey Hepburn Tabs
Dont You Ever Forget About Me Ukulele
Scene Four - Dont You Ever Forget About Me Ukulele
You Kill Me In A Good Way Ukulele


Song lyrics



↑ Back to top | Tablatures and chords are parodies/interpretations of the original songs. You may use it for private study, scholarship, research or language learning purposes only
© 2014 AZChords.com Contact us | Privacy policy | DMCA | Add/correct tabs | Request tabs | Top 50 tabs