>
 >
Simple Aggression

Simple Aggression Guitar Tabs

Slayer - Simple Aggression chords, tabs, tablatures, lyrics

Guitar lessons | Add/correct | Request | Top 50 tabs Artists:  A B C D E F G H I J K L M N O P Q R S T U V W X Y Z 0-9

Simple Aggression Guitar Tabs – Slayer

CD, Sheet music, Poster

Do you like Simple Aggression? Share with your friends now
Tabs
simple aggression


slayer





e:-------------------------------------------------------------|
B:-------------------------------------------------------------|
G:-------------------------------------------------------------|
D:---8p7---7-10p7---8p7---7-10p7---8p7---7-10p7---8p7---7-10p7-|
A:-0-----9--------0-----9--------0-----9--------0-----9--------|
E:-------------------------------------------------------------|


e:------------------------|
B:------------------------|
G:------------------------|
D:--7p5-------------------|
A:------7-6-5h6h7p6-------|
E:------------------7-6-5-|


e:-------------------------------------------------------------|
B:-------------------------------------------------------------|
G:-------------------------------------------------------------|
D:---8p7---7-10p7---8p7---7-10p7---8p7---7-10p7---8p7---7-10p7-|
A:-0-----9--------0-----9--------0-----9--------0-----9--------|
E:-------------------------------------------------------------|


e:------------------------|
B:------------------------|
G:------------------------|
D:--7p5-------------------|
A:------7-6-5h6h7p6-------|
E:------------------7-6-5-|

e:------------------------------------------|
B:------------------------------------------|
G:------------------------------------------|
D:--7--10--4--5--7--5----7--10--4--5--7--5--|
A:--5--8---2--3--5--3----5--8---2--3--5--3--|
E:------------------------------------------|

e:-------------------------------------------------------------|
B:-------------------------------------------------------------|
G:-------------------------------------------------------------|
D:---8p7---7-10p7---8p7---7-10p7---8p7---7-10p7---8p7---7-10p7-|
A:-0-----9--------0-----9--------0-----9--------0-----9--------|
E:-------------------------------------------------------------|


e:------------------------|
B:------------------------|
G:------------------------|
D:--7p5-------------------|
A:------7-6-5h6h7p6-------|
E:------------------7-6-5-|

e:------------------------------------------|
B:------------------------------------------|
G:------------------------------------------|
D:--7--10--4--5--7--5----7--10--4--5--7--5--|
A:--5--8---2--3--5--3----5--8---2--3--5--3--|
E:------------------------------------------|


e:---------------|
B:---------------|
G:---------------|
D:-7-5--4--5-----|
A:-5-3--2--3-----|
E:---------------|

    repeat  repeat  repeat  repeat  repeat  repeat
e:---------|-------|-------|-------|-------|--------|
B:-0-3p2p0-|-5p3p0-|-8p5p0-|-7p4p0-|-8p5p0-|-10p7p0-|
G:---------|-------|-------|-------|-------|--------|
D:---------|-------|-------|-------|-------|--------|
A:---------|-------|-------|-------|-------|--------|
E:---------|-------|-------|-------|-------|--------|

    repeat  repeat  repeat  repeat 
e:-------|-------|-------|--------|
B:-8p5p0-|-7p4p0-|-8p5p0-|-10p7p0-|
G:-------|-------|-------|--------|
D:-------|-------|-------|--------|
A:-------|-------|-------|--------|
E:-------|-------|-------|--------|


e:---------------------------------------------------------|
B:-8p5p0--8p5p0--8p5p0--8p5p0--8p5p0--8p5p0--(0)--h5~~~~---|
G:---------------------------------------------------------|
D:---------------------------------------------------------|
A:---------------------------------------------------------|
E:---------------------------------------------------------|

note:
pick tapping, press the string over the fret indicated, then tap from the Bridge pick ups down to the 22th fret
e:-15------------------------------------------------------|
B:---------------------------------------------------------|
G:---------------------------------------------------------|
D:---------------------------------------------------------|
A:---------------------------------------------------------|
E:---------------------------------------------------------|

e:---------------|
B:---------------|
G:---------------|
D:-9--7--5--4----|
A:-7--5--3--2----|
E:---------------|

e:-------------------------------------------------------------|
B:-------------------------------------------------------------|
G:-------------------------------------------------------------|
D:---------2h3p2----------2h5p2----------2h3p2----------2h5p2--|
A:-2---2h3--------2---2h3--------2---2h3--------2---2h3--------|
E:-0-0------------0-0------------0-0------------0-0------------|


verse
e:-------------------------------------------------------------|
B:-------------------------------------------------------------|
G:-------------------------------------------------------------|
D:---------2h3p2----------2h5p2----------2h3p2----------2h5p2--|
A:-2---2h3--------2---2h3--------2---2h3--------2---2h3--------|
E:-0-0------------0-0------------0-0------------0-0------------|

GT1
e:---------------------------------------------------------------------|
B:---------------------------------------------------------------------|
G:-9---------------------------------9---------------------------------|
D:---10-9----9~~~--10-9----------------10-9----9~~~--10-9--------------|
A:--------10------------10-12--12-12--------10------------10-12--12-12-|
E:---------------------------------------------------------------------|

GT2
e:------------------------------------------------------------------------|---|
B:------------------------------------------------------------------------|---|
G:------------------------------------------------------------------------|---|
D:--------------2-------------------2-----------------2-----------------2-|---|
A:-2-2----------2-2--2-2----------2-2--2-2----------2-2--2-2----------2-2-|-3-|
E:-0-0--0-0-0-0-0-0--0-0--0-0-0-0-0-0--0-0--0-0-0-0-0-0--0-0--0-0-0-0-0-0-|-1-|


verse
e:-------------------------------------------------------------|
B:-------------------------------------------------------------|
G:-------------------------------------------------------------|
D:---------2h3p2----------2h5p2----------2h3p2----------2h5p2--|
A:-2---2h3--------2---2h3--------2---2h3--------2---2h3--------|
E:-0-0------------0-0------------0-0------------0-0------------|

GT1
e:------------------------------------------|-----------------------------------|
B:-8p5p0--8p5p0--8p5p0--8p5p0--8p5p0--8p5p0-|-12p10p0-12p10p0-12p10p0-12p10p0---|
G:------------------------------------------|-----------------------------------|
D:------------------------------------------|-----------------------------------|
A:------------------------------------------|-----------------------------------|
E:------------------------------------------|-----------------------------------|
GT2
e:--------------------------------------------|
B:--------------------------------------------|
G:--------------------------------------------|
D:-4--5--7--9------------9--10--12--14--------|
A:-2--3--5--7------------7--8---10--12--------|
E:--------------------------------------------|

solo 1                                                      repeat
e:-----------------------------------------------------|----------------|-----------------|
B:-----------------------------------------------------|----------------|-----------------|
G:-16B~~~~~~---16B~~~~~~-16B~~~~~~-16B~~~~~~-16B~~~~~~-|-14-14-16-14-17-|-9Bf-9ah-9ah-9ah-|
D:-----------------------------------------------------|----------------|-----------------|
A:-----------------------------------------------------|----------------|-----------------|
E:-----------------------------------------------------|----------------|-----------------|

e:----------------------------------------------------------------------------------------|
B:----------------------------------------------------------------------------------------|
G:-9ah-9ah-9ah--9h10h9h10p9h10p9-10-9-10-9-10-12-10-9----------14-16B--17--19B--19B--19Bf-|
D:----------------------------------------------------12-10-9-----------------------------|
A:----------------------------------------------------------------------------------------|
E:----------------------------------------------------------------------------------------|


e:--------------------------------------------------------------------------------|
B:--------------------------------------------------------------------------------|
G:--------------------------------------------------------------------------------|
D:-2--------------------------2-------------------------2-------------------------|
A:---3-2---2~~--3-2-------------3-2---2~~--3-2------------3-2---2~~--3-2----------|
E:-------3----------3-5--5-5--------3----------3-5--5-5-------3----------3-5--5-5-|

GT1
e:---------------------------------------------------------------------|
B:---------------------------------------------------------------------|
G:-9---------------------------------9---------------------------------|
D:---10-9----9~~~--10-9----------------10-9----9~~~--10-9--------------|
A:--------10------------10-12--12-12--------10------------10-12--12-12-|
E:---------------------------------------------------------------------|
GT2
e:----------------------------------------------------------------------------------|
B:-5--------------------------5--------------------------5--------------------------|
G:---5-4---4~~~--5-4------------5-4---4~~~--5-4------------5-4---4~~~--5-4----------|
D:-------5-----------5-7--7-7-------5-----------5-7--7-7-------5-----------5-7--7-7-|
A:----------------------------------------------------------------------------------|
E:----------------------------------------------------------------------------------|

e:-----------------------------------------|
B:-----------------------------------------|
G:-4-5-7-5-4-------------------------------|
D:-----------7-4-5-7-5-4-------------------|
A:-----------------------7-4-5-7-5-4-------|
E:-----------------------------------7-5-4-|

solo 2
e:----------------------------------------------------------------------------------------|
B:----------------------------------------------------------------------------------------|
G:-9-9-9-9-9--11-11-11-11-11--12-12-12--14-14-14-14-14--16-16-16-16-16--19-19-19-19-19-19-|
D:----------------------------------------------------------------------------------------|
A:----------------------------------------------------------------------------------------|
E:----------------------------------------------------------------------------------------|

                              8va. octave   
e:------------------------------------------------------------------------------|
B:------------------------------------------------------------------------------|
G:-21Bf~~~~~~--21-18-19-21-19-18----------------------------------------18-20Bf-|
D:-------------------------------21-18-19-21-19-18-------------18-19-21---------|
A:-------------------------------------------------21-18-19-21------------------|
E:------------------------------------------------------------------------------|


e:-000-2-000-3p2-000-3-000-5p3-000-5-000-7p5-000-7-000-9p7-000-9-000-10p9-000-10-000-12p14-|
B:-----------------------------------------------------------------------------------------|
G:-----------------------------------------------------------------------------------------|
D:-----------------------------------------------------------------------------------------|
A:-----------------------------------------------------------------------------------------|
E:-----------------------------------------------------------------------------------------|

:-000-14-000-15p14-0-14-17p16p14-17p16p14-17p16p14-17p16p14-17p16p14-17p16p14-17p16p14-|
:--------------------------------------------------------------------------------------|
:--------------------------------------------------------------------------------------|
:--------------------------------------------------------------------------------------|
:--------------------------------------------------------------------------------------|
:--------------------------------------------------------------------------------------|

e:-17p16p14--17B-17B--17B-17B--17Bf--17-14h15p14---------------------|
B:-----------------------------------------------17-14h16p14---------|
G:------------------------------------------------------------16-16\-|
D:-------------------------------------------------------------------|
A:-------------------------------------------------------------------|
E:-------------------------------------------------------------------|


e:-------------------15p12-14p12-15p12-14p12-|-18B--18Bf--18-15-16-15-16-18-16-15----------|
B:-12-12-12-12-12-12-------------------------|------------------------------------18-15-17-|
G:-------------------------------------------|---------------------------------------------|
D:-------------------------------------------|---------------------------------------------|
A:-------------------------------------------|---------------------------------------------|
E:-------------------------------------------|---------------------------------------------|

:-----------------------------------------|
:-18--------------------------------------|
:----17-15\-------------------------------|
:-----------------------------------------|
:-----------------------------------------|
:-----------------------------------------|

solo 3
                                                     2 times
e:------------------------------------------------|---------------|---------------------|
B:------------------------------------------------|-----7-8-7h8p7-|-----777-888-777-888-|
G:----------------------------------------------7-|-9-9-----------|-999-----------------|
D:---------------------------------------7h8h10---|---------------|---------------------|
A:--------------------------------7h8h10----------|---------------|---------------------|
E:-3h5h6-4h6h7-5h7h8-6h8h9-7h8h10-----------------|---------------|---------------------|

                                                                                  pick slide
:---------------------------------------------------------------------------------------|
:-10-10-10-888-10-10-10--11-11-11-9-11-11-11--10-10-10-888-10-10-10--777-888-777--------|
:--------------------------------------------------------------------------------9------|
:---------------------------------------------------------------------------------------|
:------------------------------------------------------------------------------------x\-|
:------------------------------------------------------------------------------------x\-|


e:-----------------------------------------------------------------------------------------|
B:-----------------------------------------------------------------------------------------|
G:15B-16B-17B-18B-19B--12-15p14p12-15p14p12-15p14p12-15p14p12-15p14p12-15p14p12--9B-9ah-9ah|
D:-----------------------------------------------------------------------------------------|
A:-----------------------------------------------------------------------------------------|
E:-----------------------------------------------------------------------------------------|


:---------------------------------------------------------------------------|
:---------------------------------------------------------------------------|
:-9ah-9ah---9-10-9-10-12-10-9------------------15-17B--18-19Bf--19B---19Bf--|
:-----------------------------12-9-10-12-10-9-------------------------------|
:---------------------------------------------------------------------------|
:---------------------------------------------------------------------------|

e:-------------------------------------------------------------|
B:-------------------------------------------------------------|
G:-------------------------------------------------------------|
D:---------2h3p2----------2h5p2----------2h3p2----------2h5p2--|
A:-2---2h3--------2---2h3--------2---2h3--------2---2h3--------|
E:-0-0------------0-0------------0-0------------0-0------------|


verse
e:-------------------------------------------------------------|
B:-------------------------------------------------------------|
G:-------------------------------------------------------------|
D:---------2h3p2----------2h5p2----------2h3p2----------2h5p2--|
A:-2---2h3--------2---2h3--------2---2h3--------2---2h3--------|
E:-0-0------------0-0------------0-0------------0-0------------|

e:--15B--15B--|
B:--18B--18B--|
G:------------|
D:------------|
A:------------|
E:------------|

e:---------------------------------------------------------------------|
B:---------------------------------------------------------------------|
G:-9---------------------------------9---------------------------------|
D:---10-9----9~~~--10-9----------------10-9----9~~~--10-9--------------|
A:--------10------------10-12--12-12--------10------------10-12--12-12-|
E:---------------------------------------------------------------------|


e:------------------------------------------------------------------------|---|
B:------------------------------------------------------------------------|---|
G:------------------------------------------------------------------------|---|
D:--------------2-------------------2-----------------2-----------------2-|-9-|
A:-2-2----------2-2--2-2----------2-2--2-2----------2-2--2-2----------2-2-|-7-|
E:-0-0--0-0-0-0-0-0--0-0--0-0-0-0-0-0--0-0--0-0-0-0-0-0--0-0--0-0-0-0-0-0-|---|





Comments


Popular Slayer tabs & chords
Cant Stand You 2 Bass Tabs
Epidemic Bass Tabs
Metal Storm Bass Tabs
Tormentor 2 Bass Tabs
Verbal Abuse 1 Bass Tabs
Threshold Drum Tabs
Blood Red 2 Tabs
Overt Enemy Tabs
Silent Scream 1 Tabs
Skeleton Christ Tabs


Song lyrics



↑ Back to top | Tablatures and chords are parodies/interpretations of the original songs. You may use it for private study, scholarship, research or language learning purposes only
© 2014 AZChords.com Contact us | Privacy policy | DMCA | Add/correct tabs | Request tabs | Top 50 tabs