>
 >
Scarstruck

Scarstruck Guitar Tabs

Slayer - Scarstruck chords, tabs, tablatures, lyrics

Guitar lessons | Add/correct | Request | Top 50 tabs Artists:  A B C D E F G H I J K L M N O P Q R S T U V W X Y Z 0-9

Scarstruck Guitar Tabs – Slayer

CD, Sheet music, Poster

Do you like Scarstruck? Share with your friends now
Tabs
tune the guitar 6 frets down...maybe 5.....ah ***..*** it hehe

                                             repeat
e:--------------------------------------------------------------|
B:--------------------------------------------------------------|
G:--------------------------------------------------------------|
D:-5-4-3-2--5-4-2--5-4-2--5-4-3-2-------------------------------|
A:-5-4-3-2--5-4-2--5-4-2--5-4-3-2-------------------------------|
E:-3-2-1-0--3-2-0--3-2-0--3-2-1-0-------------------------------|


verse
e:-------------------------------------|---|
B:-------------------------------------|---|
G:-------------------------------------|---|
D:-------------------------------------|---|
A:-----3-------3-------3-------3-------|-5-|
E:-0-0-1-0-0-0-1-0-0-0-1-0-0-0-1-0-0-0-|-3-|

e:-------------------------------------|---|
B:-------------------------------------|---|
G:-------------------------------------|---|
D:-------------------------------------|---|
A:-----3-------3-------3-------3-------|-6-|
E:-0-0-1-0-0-0-1-0-0-0-1-0-0-0-1-0-0-0-|-4-|


this is other riff for the beginning of the verse i did it two ways you
can choose either this one or the other one, itīs your call
--------------------------------------------------------------
e:------------------------------------------|---|
B:------------------------------------------|---|
G:------------------------------------------|---|
D:------------------------------------------|---|
A:------------------------------------------|-5-|
E:-0-0-1-0-0-0-3p1-0-0-0-1-0-0-0-3p1-0-0-0--|-3-|

e:------------------------------------------|---|
B:------------------------------------------|---|
G:------------------------------------------|---|
D:------------------------------------------|---|
A:------------------------------------------|-6-|
E:-0-0-1-0-0-0-3p1-0-0-0-1-0-0-0-3p1-0-0-0--|-4-|



e:----------------------------------------------|------------|
B:----------------------------------------------|------------|
G:----------------------------------------------|------------|
D:----------------------------------------------|------------|
A:-5-5-5---5-5-5-5-3-6-6--5-5---5--5-5-5--2-(2)-|-5-7--8-----|
E:-3-3-3-0-3-3-3-3-1-4-4--3-3-0-3--3-3-3--0-(0)-|-3-5--6-----|


drown in my hate you know you know...
e:-------------------------------------|---|
B:-------------------------------------|---|
G:-------------------------------------|---|
D:-------------------------------------|---|
A:-----3-------3-------3-------3-------|-5-|
E:-0-0-1-0-0-0-1-0-0-0-1-0-0-0-1-0-0-0-|-3-|

e:-------------------------------------|---|
B:-------------------------------------|---|
G:-------------------------------------|---|
D:-------------------------------------|---|
A:-----3-------3-------3-------3-------|-6-|
E:-0-0-1-0-0-0-1-0-0-0-1-0-0-0-1-0-0-0-|-4-|

--------------------------------------------------------------

e:------------------------------------------|---|
B:------------------------------------------|---|
G:------------------------------------------|---|
D:------------------------------------------|---|
A:------------------------------------------|-5-|
E:-0-0-1-0-0-0-3p1-0-0-0-1-0-0-0-3p1-0-0-0--|-3-|

e:------------------------------------------|---|
B:------------------------------------------|---|
G:------------------------------------------|---|
D:------------------------------------------|---|
A:------------------------------------------|-6-|
E:-0-0-1-0-0-0-3p1-0-0-0-1-0-0-0-3p1-0-0-0--|-4-|

--------------------------------------------------------------


           repeat 3 times
e:-------------------------------|
B:-------------------------------|
G:-------------------------------|
D:-------------------------------|
A:-3-3-3-/-6-6-4-5---8--5/8--5/8-|
E:-1-1-1-/-4-4-4-3-0-6--3/6--3/6-|


                                   pick slide
e:-------------------------------------------------|
B:-------------------------------------------------|
G:-------------------------------------------------|
D:-------------------------------------------------|
A:-3-3-3-/-6-6-4-5--5-5-5-5-5--2--X/---------------|
E:-1-1-1-/-4-4-4-3--3-3-3-3-3--0--X/---------------|

i am your vice for real for real....

e:-------------------------------------|---|
B:-------------------------------------|---|
G:-------------------------------------|---|
D:-------------------------------------|---|
A:-----3-------3-------3-------3-------|-5-|
E:-0-0-1-0-0-0-1-0-0-0-1-0-0-0-1-0-0-0-|-3-|

e:-------------------------------------|---|
B:-------------------------------------|---|
G:-------------------------------------|---|
D:-------------------------------------|---|
A:-----3-------3-------3-------3-------|-6-|
E:-0-0-1-0-0-0-1-0-0-0-1-0-0-0-1-0-0-0-|-4-|

--------------------------------------------------------------

e:------------------------------------------|---|
B:------------------------------------------|---|
G:------------------------------------------|---|
D:------------------------------------------|---|
A:------------------------------------------|-5-|
E:-0-0-1-0-0-0-3p1-0-0-0-1-0-0-0-3p1-0-0-0--|-3-|

e:------------------------------------------|---|
B:------------------------------------------|---|
G:------------------------------------------|---|
D:------------------------------------------|---|
A:------------------------------------------|-6-|
E:-0-0-1-0-0-0-3p1-0-0-0-1-0-0-0-3p1-0-0-0--|-4-|

--------------------------------------------------------------

all of...
           repeat 3 times
e:-------------------------------|
B:-------------------------------|
G:-------------------------------|
D:-------------------------------|
A:-3-3-3-/-6-6-4-5---8--5/8--5/8-|
E:-1-1-1-/-4-4-4-3-0-6--3/6--3/6-|


               i canīt wait
e:--------------------------------|
B:--------------------------------|
G:--------------------------------|
D:--------------------------------|
A:-5-5-5--2---5-5-5---------------|
E:-3-3-3--0---3-3-3---------------|


dont get inside my head you know thereīs notthing through it.....
e:-------------------------------------|---|
B:-------------------------------------|---|
G:-------------------------------------|---|
D:-------------------------------------|---|
A:-----3-------3-------3-------3-------|-5-|
E:-0-0-1-0-0-0-1-0-0-0-1-0-0-0-1-0-0-0-|-3-|

e:-------------------------------------|---|
B:-------------------------------------|---|
G:-------------------------------------|---|
D:-------------------------------------|---|
A:-----3-------3-------3-------3-------|-6-|
E:-0-0-1-0-0-0-1-0-0-0-1-0-0-0-1-0-0-0-|-4-|

--------------------------------------------------------------

e:------------------------------------------|---|
B:------------------------------------------|---|
G:------------------------------------------|---|
D:------------------------------------------|---|
A:------------------------------------------|-5-|
E:-0-0-1-0-0-0-3p1-0-0-0-1-0-0-0-3p1-0-0-0--|-3-|

e:------------------------------------------|---|
B:------------------------------------------|---|
G:------------------------------------------|---|
D:------------------------------------------|---|
A:------------------------------------------|-6-|
E:-0-0-1-0-0-0-3p1-0-0-0-1-0-0-0-3p1-0-0-0--|-4-|

--------------------------------------------------------------

  scarstruuuuuuuuuuck!!!
e:----------------------------------------|
B:----------------------------------------|
G:----------------------------------------|
D:----------------------------------------|
A:-5-5-5---5-5-5-5-3-6--5-5---5--5-5-5--2-|
E:-3-3-3-0-3-3-3-3-1-4--3-3-0-3--3-3-3--0-|


drown in my head you know  you know brutality is the.....
e:-------------------------------------|---|
B:-------------------------------------|---|
G:-------------------------------------|---|
D:-------------------------------------|---|
A:-----3-------3-------3-------3-------|-5-|
E:-0-0-1-0-0-0-1-0-0-0-1-0-0-0-1-0-0-0-|-3-|

e:-------------------------------------|---|
B:-------------------------------------|---|
G:-------------------------------------|---|
D:-------------------------------------|---|
A:-----3-------3-------3-------3-------|-6-|
E:-0-0-1-0-0-0-1-0-0-0-1-0-0-0-1-0-0-0-|-4-|

--------------------------------------------------------------

e:------------------------------------------|---|
B:------------------------------------------|---|
G:------------------------------------------|---|
D:------------------------------------------|---|
A:------------------------------------------|-5-|
E:-0-0-1-0-0-0-3p1-0-0-0-1-0-0-0-3p1-0-0-0--|-3-|

e:------------------------------------------|---|
B:------------------------------------------|---|
G:------------------------------------------|---|
D:------------------------------------------|---|
A:------------------------------------------|-6-|
E:-0-0-1-0-0-0-3p1-0-0-0-1-0-0-0-3p1-0-0-0--|-4-|

--------------------------------------------------------------

everything your want me to.....
          repeat 3 times
e:-------------------------------|
B:-------------------------------|
G:-------------------------------|
D:-------------------------------|
A:-3-3-3-/-6-6-4-5---8--5/8--5/8-|
E:-1-1-1-/-4-4-4-3-0-6--3/6--3/6-|


  your flesh....          pick slide
e:-----------------------------------------|
B:-----------------------------------------|
G:-----------------------------------------|
D:-----------------------------------------|
A:---5/8--5/8--5/8--5/8---X/---------------|
E:---3/6--3/6--3/6--3/6---X/---------------|


  repeat 3 times                    scarstruck!!!
e:--------------------------------------------------|
B:--------------------------------------------------|
G:--------------------------------------------------|
D:--------------------------------------------------|
A:-2--------6/5-----5/6-----5------5/7--------------|
E:-0--0-0-0-4/3--0--3/4--0--3/4-0--3/5--------------|



e:------------------------------------------|
B:------------------------------------------|
G:------------------------------------------|
D:------------------------------------------|
A:-8/6--7/5--8--2-2-------------------------|
E:-6/4--5/3--6--0-0-------------------------|



e:-----------------------------------|
B:-----------------------------------|
G:-----------------------------------|
D:-----------------------------------|
A:---3------3-----3------------------|
E:-0-1-0-0--1-0-0-1------------------|


ummmm this song has the same tune as the song carcass from heartwork itīs
kind of similar to that





Comments


Popular Slayer tabs & chords
Hardening Of The Arteries Bass Tabs
Spill The Blood Bass Tabs
Here Comes The Pain Drum Tabs
Bloodline 4 Tabs
Criminally Insane Tabs
Dead Skin Mask (Solo) Tabs
Necrophobic 1 Tabs
Raining Blood 6 Tabs
Seasons In The Abyss 2 Tabs
Skeletons Of Society 1 Tabs


Song lyrics



↑ Back to top | Tablatures and chords are parodies/interpretations of the original songs. You may use it for private study, scholarship, research or language learning purposes only
© 2014 AZChords.com Contact us | Privacy policy | DMCA | Add/correct tabs | Request tabs | Top 50 tabs