» » »

Slayer, Overt Ememy Bass tabs (ver.1)

Artists:  A B C D E F G H I J K L M N O P Q R S T U V W X Y Z # 

Overt Ememy Bass tabs (ver.1)

Slayer Tabs
 Rating:
4/5 (4 votes)
Overt Ememy lessons Tabs too difficult? Try these video lessons and learn fast
                G--------------------|---------------------|-------------------|
D--------------------|---------------------|-------------------|
A----------6--5------|----------6--5-------|-------------------|
D-0--7--6--------8---|-0--7--6--------8--7-|-5--4---8--7--11~~-|
repeat

G---------------------------------------------------------------------------|
D---------------------------------------------------------------------------|
A---------------------------------------------------------------------------|
D-0--3-2-0-3-2-0-0--3-2-0-3-2-6-6--3-2-0-3-2-0-0-3-2-0-3-2-6-3-2-0-3-2-0-0--|

              x3                           x3
G-------------------|--------------|------------------|--------------|
D-------------------|--------------|------------------|--------------|
A-------------------|--------------|------------------|--------------|
D-0--3--2---0--6--5-|-3--0-0--0-0--|-0--3--2---0--6--5|-3--0-0--0-0--|


G------------------|---------------------|--------------------|
D------------------|---------------------|--------------------|
A------------------|---------------------|--------------------|
D-0--7--6--0--7--1-|--0--7--6--0--7--1---|-0-0--0-0--0-0--0-0-|

you'll be able to find out when these are played if you listen to the song.
            
Submit corrections

comments powered by Disqus
↑ Back to top | Slayer Bass for Overt Ememy. Lyrics for acoustic guitar and electric guitar. Tablatures and chords are parodies/interpretations of the original songs. You may use it for private study, scholarship, research or language learning purposes only