>
 >
Black Magik

Black Magik Guitar Tabs

Slayer - Black Magik chords, tabs, tablatures, lyrics

Guitar lessons | Add/correct | Request | Top 50 tabs Artists:  A B C D E F G H I J K L M N O P Q R S T U V W X Y Z 0-9

Black Magik Guitar Tabs – Slayer

CD, Sheet music, Poster

Do you like Black Magik? Share with your friends now
Tabs
slayer

   
                                               play 4 times
e:|-------------------------------------------------------------|
B:|-------------------------------------------------------------|
G:|-------------------------------------------------------------|
D:|-------------------------------------------------------------|
A:|---------7-----------7-8-----------7-8-10-8-----8-7----------|
E:|-0-0-0-0-----0-0-0-0-------0-0-0-0----------10---------------|



e:------------------------|
B:------------------------|
G:------------------------|
D:-14h15p14h15p14h15p14etc|
A:------------------------|
E:------------------------|


solo 1
e:----19b-19b-19b---19b-19b----19b--19b--19b--19b--19b--19--22b-|
B:-22-22b-22b-22b---22b-22b----22b--22b--22b--22b--22b----------|
G:--------------------------------------------------------------|
D:--------------------------------------------------------------|
A:--------------------------------------------------------------|
E:--------------------------------------------------------------|


e:-19-22-21-19-22-22-21-19-24-21-19-22-21-19-24-21-19-22-22-19-------|
B:-------------------------------------------------------------22\x/-|
G:-------------------------------------------------------------------|
D:-------------------------------------------------------------------|
A:-------------------------------------------------------------------|
E:-------------------------------------------------------------------|


         repeat 5 times                                      repeat 2 
times                                                                                
e:-18p15*-------18p15-18p15*---------------------------------*----------|
B:------*-18p15------------*-18p15-15-18p15------------------*----------|
G:------*------------------*----------------17-15-14-17-15-14*----------|
D:------*------------------*---------------------------------*-17-15-14-|
A:------*------------------*---------------------------------*----------|
E:------*------------------*---------------------------------*----------|




e:------------------------22-22-22-----------------------------------------|
B:------------------------------------------22-22-22-21-21-21--------------|
G:---------------------------------19-19-19--------------------22-22-22----|
D:-------------------------------------------------------------------------|
A:15-13-12-----------------------------------------------------------------|
E:---------15-13-12-(12)\--------------------------------------------------|


  
              
e:----------------------------------------------------------17-\---------------|
B:----------------------------------------------17-20-19-17--------------------|
G:-------------------19-(19)\---20-17----17-20--------------------5h7p5h7p5etc-|
D:-19-19-19-21-21-21------------------19---------------------------------------|
A:-----------------------------------------------------------------------------|
E:-----------------------------------------------------------------------------|




e:-----------------------------------------------------------------15b/17b-|
B:-------------------------------------15-15-15-17-17-17-18-18-18--18b/20b-|
G:-5-7/12---14-14-14-15-15-15-17-17-17-------------------------------------|
D:-------------------------------------------------------------------------|
A:-------------------------------------------------------------------------|
E:-------------------------------------------------------------------------|




solo 2
e:--------------------------------------------------------------------|
B:--------------------------------------------------------------------|
G:--------------------------------------------------------------------|
D:--------------------------------------------------------------------|
A:--------------------------------------------------------------------|
E:-3-4-6-4-5-7-5-6-8-7-8-10-8-9-11-9-10-12-11-12-14-12-13-15-13-14-16-|



e:-----------------------------------x\---x\-----------|
B:-------------------------------x\--x\-------x\-------|
G:-------------------------------x\--------------------|
D:------------------14-17--x\---------------------x\---|
A:---------14-15-17--------x\---------------------x\---|
E:14-15-17---------------------------------------------|



e:---------------------------------------------------------------|
B:---------------------------------------------------------------|
G:--------------------------------7-10-7----------7-10-7---------|
D:-----5---5--7-5/9\7\5/7-10-7-10--------10-7-10---------10-7-10-|
A:-7-----7-------------------------------------------------------|
E:---------------------------------------------------------------|




                           bar
e:----------------------------------------------------------|
B:----------------------5AH---------------------------------|
G:7--8-7------10-7------5AH---------------------------------|
D:-------10-7------10-7------------2--2p0h2-3p2-------------|
A:----------------------------------------------3p2p0-3p2p0-|
E:----------------------------------------------------------|



                                            trem. bar
e:------------------------------------------------------------------|
B:------------------------------------------------------------------|
G:-----------------------------------7h9p7h9p7h9p7h9p7h9p7h9p7h9etc-|
D:-----------------------------7-9-9--------------------------------|
A:----------5-----7p5---9p7--9--------------------------------------|
E:-4----5h7---7p5-----7---------------------------------------------|


     bar            trem. bar
e:------------------------------------------------------|
B:-------------12AH-------------------------------------|
G:-7h9---------12AH-------------------------------------|
D:----------12------------------------------------------|
A:------------------------------------------------------|
E:------------------------------------------------------|



e:------------------------------------------------------|
B:-18-18-18-18-18-18-18-18-17h18-17-15-18-18-17-15-18-18|
G:------------------------------------------------------|
D:------------------------------------------------------|
A:------------------------------------------------------|
E:------------------------------------------------------|


e:-----------------------------------------18-18-18b-|
B:18-18-18-18-18-18-18-18-17-15-18\-/17p15-----------|
G:---------------------------------------------------|
D:---------------------------------------------------|
A:---------------------------------------------------|
E:---------------------------------------------------|




e:15-15-18p15-18p15-18p15-------------17-19-19-17-19-19-17|
B:------------------------17\-/18/19----------------------|
G:--------------------------------------------------------|
D:--------------------------------------------------------|
A:--------------------------------------------------------|
E:--------------------------------------------------------|




e:17-22-22-17-17-19-19-17-19-17-22-22-17-17-19-19-17-19-17-22-22-|
B:---------------------------------------------------------------|
G:---------------------------------------------------------------|
D:---------------------------------------------------------------|
A:---------------------------------------------------------------|
E:---------------------------------------------------------------|



e:17-17-19-19-17-19-17-22-22-17-x-17-19-17-22-17-17-22-22-22b-22b|
B:---------------------------------------------------------------|
G:---------------------------------------------------------------|
D:---------------------------------------------------------------|
A:---------------------------------------------------------------|
E:---------------------------------------------------------------|





Comments


Popular Slayer tabs & chords
Filler 1 Bass Tabs
Necrophiliac Bass Tabs
South Of Heaven Bass Tabs
Disciple 1 Tabs
Necrophiliac Tabs
Perversions Of Pain Tabs
Praise Of Death Tabs
Scrum Tabs
Seasons In The Abyss 1 Tabs
Silent Scream 6 Tabs


Song lyrics



↑ Back to top | Tablatures and chords are parodies/interpretations of the original songs. You may use it for private study, scholarship, research or language learning purposes only
© 2014 AZChords.com Contact us | Privacy policy | DMCA | Add/correct tabs | Request tabs | Top 50 tabs