» » »

Slayer, At Down They Sleep Tabs (ver.1)

Artists:  A B C D E F G H I J K L M N O P Q R S T U V W X Y Z # 

At Down They Sleep Tabs (ver.1)

Slayer Tabs
 Rating:
4/5 (4 votes)
At Down They Sleep lessons Tabs too difficult? Try these video lessons and learn fast
                


solo 1
eb:20b----------------------------------------------------------------------------9AH-|
Bb:-----------10-11-10-11-10-11-13---6-5-6-8-6-5--------------------------------------|
Gb:----------------------------------------------8-5-6-8-6-5--------5h7p5---5h7p5-----|
Db:----10~~~-------------------------------------------------7-7-7--------7-----------|
Ab:-----------------------------------------------------------------------------------|
Eb:-----------------------------------------------------------------------------------|


                  
:------------------------------------------------------------------------------------------|
:------------------------------------------------------------------------------------------|
:-14t-10p7-14t-10p7-15t-10p9-15t-10p9-15t-12p10-15t-12p10-16t-13p10-16t-13p10--17AH--19AH~~|
:------------------------------------------------------------------------------------------|
:------------------------------------------------------------------------------------------|
:------------------------------------------------------------------------------------------|



:15t-12p9-15t-12p9-16t-13p10-16t-13p10-17t-14p11-18t-15p-12-19t-16p13-20t-17p14-20t-18p15-|
:-----------------------------------------------------------------------------------------|
:-----------------------------------------------------------------------------------------|
:-----------------------------------------------------------------------------------------|
:-----------------------------------------------------------------------------------------|
:-----------------------------------------------------------------------------------------|


                bar                                    
--------------------------
:21t-19p16-21b---------------------------------------19b-22t-22t-22t-22t-etc...---|
:---------------------------------------------------------------------------------|
:----------------15----/15~~~--14~~~--15~~~--14~~~--------------------------------|
:---------------------------------------------------------------------------------|
:---------------------------------------------------------------------------------|
:---------------------------------------------------------------------------------|



solo 2   

:12b-(12)-(12)-12h13p12h13p12h13p12etc--12-13-15-13-12-------------------------------------|
:------------------------------------------------------15-12-13-15-13-12-------------------|
:------------------------------------------------------------------------15-12-14-15-14-12-|
:------------------------------------------------------------------------------------------|
:------------------------------------------------------------------------------------------|
:------------------------------------------------------------------------------------------|


:---------------------------------------------------------------------------------------|
:---------------------------------------------------------------------------------------|
:---12h14p12----12h14b~~~~--------------------------------------------------------------|
:15----------15-------------12-14-15-14-12----------------------------------------------|
:------------------------------------------17-14-15-17-15-14---------------------7-8-10-|
:-------------------------------------------------------------17-14-15-17-15-14\--------|


:---------------------------------------------------------------------------------------|
:---------------------------------------------------------------------------------------|
:---------------------------------------------------------------------------------------|
:-------------------------7-8-10-7-8-10--9-10-12--9-10-12--11-12-14--11-12-14--12-13-15-|
:7-8-10--9-10-12-9-10-12----------------------------------------------------------------|
:---------------------------------------------------------------------------------------|



:------------------------------------------------------------------------------------------|
:------------------------------------------------------------------------------------------|
:------------------------------12-14b--13-14-16--13-14-16----------------13-14-16-13-14-16-|
:12-13-15--14-15-17--14-15-17-----------------------------16-14-13-14-16-------------------|
:------------------------------------------------------------------------------------------|
:------------------------------------------------------------------------------------------|



:---------------13-14-13-14-16b~~~~~-|
:13-14-13-14-16----------------------|
:------------------------------------|
:------------------------------------|
:------------------------------------|
:------------------------------------|

solo 3

bar/\/\/\/\/\/\/\/\/\/\
:------------------------------------------------------------12h13p12h13p12h13p15p13p12h13p12|
:---------------------------------------12h13p12h13h15p13p12---------------------------------|
:0--(0)---(0)---(0)-etc--12h14p12h14p12------------------------------------------------------|
:--------------------------------------------------------------------------------------------|
:--------------------------------------------------------------------------------------------|
:--------------------------------------------------------------------------------------------|


:----------------------------------------------------------18b-21b--21-18-19-18-19-21-19-18-|
:15-12-13-15-13-12-------------15b-16b-17b-18b-19b-20b-21b----------------------------------|
:------------------15-12--14b---------------------------------------------------------------|
:-------------------------------------------------------------------------------------------|
:-------------------------------------------------------------------------------------------|
:-------------------------------------------------------------------------------------------|


:19-18-----------------------------------------|
:------21-18-19-21-19-18--21-18--19---19b~~~~~-|
:----------------------------------------------|
:----------------------------------------------|
:----------------------------------------------|
:----------------------------------------------|

*-*-*-*-*-*-*-*-*-*-*-*-*-*-*-*-*-*-*-*-*-*-*-*-*-*-*-*-*-*-*-*-*-*-*-*-*-*-*-*-*-*-*-*-*
            
Submit corrections

comments powered by Disqus
↑ Back to top | Slayer Tabs for At Down They Sleep. Lyrics for acoustic guitar and electric guitar. Tablatures and chords are parodies/interpretations of the original songs. You may use it for private study, scholarship, research or language learning purposes only