>
 >
Assassin

Assassin Guitar Tabs

Slayer - Assassin chords, tabs, tablatures, lyrics

Guitar lessons | Add/correct | Request | Top 50 tabs Artists:  A B C D E F G H I J K L M N O P Q R S T U V W X Y Z 0-9

Assassin Guitar Tabs – Slayer

CD, Sheet music, Poster

Do you like Assassin? Share with your friends now
Tabs
Band- Slayer
Song- Assassin

e:-5~~~~~~--|
B:----------|
G:----------|
D:----------|
A:----------|
E:----------|

e:--------------------------------------------------------|
B:---------------------------5nh--------------------------|
G:-------5-4-------5-----5nh-----------5-4----7---7p5-----|
D:-------5-4-------5-5nh---------------5-4----7---7p5-----|
A:-0-0-0-----0-0-0---------------0-0-0------0---0-----7p5-|
E:--------------------------------------------------------|

e:--------------------------------------------------------|
B:---------------------------5nh--------------------------|
G:-------5-4-------5-----5nh-----------5-4----7---7p5-----|
D:-------5-4-------5-5nh---------------5-4----7---7p5-----|
A:-0-0-0-----0-0-0---------------0-0-0------0---0-----7p5-|
E:--------------------------------------------------------|

verse
e:--------------------------------------------------|
B:--------------------------------------------------|
G:---------------------------5-4-------5---5p4------|
D:-7-7--7--5--7-7-10---------5-4-------5---5p4------|
A:-5-5--5--3--5-5-8----0-0-0-----0-0-0---0----------|
E:--------------------------------------------------|

e:--------------|
B:--------------|
G:--------------|
D:--------------|
A:-10--9---12---|
E:-8---7---10---|


solo 1 kinG
:----------------------------------------------------------------20B-22B-22B---20p17-------|
:-20p19p17-20p19p17-20p19p17-20p19p17-20p19p17-20p19p17-20p19p17---------------------20p17-|
:------------------------------------------------------------------------------------------|
:------------------------------------------------------------------------------------------|
:------------------------------------------------------------------------------------------|
:------------------------------------------------------------------------------------------|

e:----17-----------------------------------------------17~~~--7p5p4----------------------|
B:-20-----18p17p15-18p17p15-18p17p15-18p17p15-18p17p15--------------7p5p4-5p4h5p4--------|
G:--------------------------------------------------------------------------------6p4-7B-|
D:---------------------------------------------------------------------------------------|
A:---------------------------------------------------------------------------------------|
E:---------------------------------------------------------------------------------------|


verse
e:--------------------------------------------------|
B:--------------------------------------------------|
G:---------------------------5-4-------5---5p4------|
D:-7-7--7--5--7-7-10---------5-4-------5---5p4------|
A:-5-5--5--3--5-5-8----0-0-0-----0-0-0---0----------|
E:--------------------------------------------------|

e:--------------|
B:--------------|
G:--------------|
D:--------------|
A:-10--9---12---|
E:-8---7---10---|

solo 2 kinG
e:-14B--14B--14B--14B--14B----------------------------------------------12-14-12-14-15B-|
B:-17B--17B--17B--17B--17B-------------------------------------12-13-15-----------------|
G:-------------------------------------------------12-14-12-14--------------------------|
D:-------------------------------------12-14-12-14--------------------------------------|
A:-------------------------12-14-12-14--------------------------------------------------|
E:--------------------------------------------------------------------------------------|

:-18B-18B-15-16-15-16-18-16-15-------------------------------------------------------------|
:------------------------------18-15-16-15-16-18-16-15-------------------------------------|
:------------------------------------------------------17-14-15-17-15-14-------------------|
:------------------------------------------------------------------------17-14-15-17-15-14-|
:------------------------------------------------------------------------------------------|
:------------------------------------------------------------------------------------------|

e:----------------------|
B:---------------15-18B-|
G:-----------/17--------|
D:----------------------|
A:-17-15-14-------------|
E:----------------------|


e:---------------------------------|
B:---------------------------------|
G:---------------------------------|
D:-9--9-9--9--9-9--9--9-9--9--9-9--|
A:-7--7-7--7--7-7--7--7-7--7--7-7--|
E:-0--0-0--0--0-0--0--0-0--0--0-0--|


verse
e:--------------------------------------------------|
B:--------------------------------------------------|
G:---------------------------5-4-------5---5p4------|
D:-7-7--7--5--7-7-10---------5-4-------5---5p4------|
A:-5-5--5--3--5-5-8----0-0-0-----0-0-0---0----------|
E:--------------------------------------------------|

e:----------------------------------------------------------|
B:----------------------------------------------------------|
G:----------------------------------------------------------|
D:-7--10-9--7--10-9--7--10-9--7--10-9--7--10-9--7--10-9--7--|
A:-5--8--7--5--8--7--5--8--7--5--8--7--5--8--7--5--8--7--5--|
E:----------------------------------------------------------|

solo 3 hanneman
e:-----------------------------------------------------------------------------------------|
B:-20Bf~~~~~--17-20-17-20-17-20-17-20-17----17----17~~~---17-19-20-17-19-20-17-19-17-19-17-|
G:---------------------------------------20----20------------------------------------------|
D:-----------------------------------------------------------------------------------------|
A:-----------------------------------------------------------------------------------------|
E:-----------------------------------------------------------------------------------------|

           pick slide
:-----------------------------------------------------------------------------------------|
:-16-17-16--------------------------------------------------------------------------------|
:----------x\-x\--19-16-17-19-17-16----------------------------------------------------16-|
:----------x\-x\--------------------19-16-17-19-17-16-------------------------16-17-19----|
:-----------------------------------------------------19-16-17-19-17-16-17-19-------------|
:-----------------------------------------------------------------------------------------|

e:------------------------------------8-5-6-8-6-5------------------------------------------|
B:------------------------------------------------8-5-6-5-6--------------------------------|
G:-17-19-17-16-------------16-18B----------------------------8-5-7-8-7-5-------------------|
D:-------------19-16-17-19-----------------------------------------------8-5-7-8-7-5-------|
A:-----------------------------------------------------------------------------------8-5-7-|
E:-----------------------------------------------------------------------------------------|

e:--------------------------------------------------------------------------------15-15-16-|
B:-----------------------------------------------------------------------------------------|
G:----------5-7-5-7-5-7-5-7--9B---9--7--9--7--6----6---6---------------------9B------------|
D:---5-7-8---------------------------------------9---9---7--9-7-9-7--6-7-6-7---------------|
A:-8---------------------------------------------------------------------------------------|
E:-----------------------------------------------------------------------------------------|

:-15-18-15-16-15-18-15-16-15-18-15-16-15-18-15-16-15-18-15-16-15-16-15---------------------|
:----------------------------------------------------------------------18-15-16-15-16-18-16|
:------------------------------------------------------------------------------------------|
:------------------------------------------------------------------------------------------|
:------------------------------------------------------------------------------------------|
:------------------------------------------------------------------------------------------|

e:--------------------------------------------------------------------------------------|
B:-15---------------------------------17B-17B-17p15-----------6-7-6-7-8-7-6-------------|
G:----17-14-15-17-15-14-15-14-17B-------------------17B--17B----------------9-6-7-9-7-6-|
D:--------------------------------------------------------------------------------------|
A:--------------------------------------------------------------------------------------|
E:--------------------------------------------------------------------------------------|

e:-----------------------|
B:-----------------------|
G:----------6-7-6B-------|
D:-9-6-7-9---------------|
A:-----------------------|
E:-----------------------|

solo 4 kinG
e:----------------------------------------------------------------------------------------|
B:----------------------------------------------------------------------------------15-16-|
G:----------------------------------14-15-17-15-14-------------------------14-15-17-------|
D:-------------------14-15-14-15-17----------------17-14-15-17-15-14-15-17----------------|
A:-14-15-17-14-15-17----------------------------------------------------------------------|
E:----------------------------------------------------------------------------------------|

e:-----------------------------------------------------------------------------------------|
B:-15-16-18-----------------------------24p22p21-24p22p21-24p22p21-24p22p21-24p22p21-24-21-|
G:----------17-14-15-17-15-14--------------------------------------------------------------|
D:----------------------------17-15-14-----------------------------------------------------|
A:-----------------------------------------------------------------------------------------|
E:-----------------------------------------------------------------------------------------|


e:----24B---19-16-17-16-17-19-17-16-------------------------------------------------------|
B:-24-------------------------------19-16-17-16-17-19-17-16-------------------------------|
G:----------------------------------------------------------18-15-16-18-16-15-------------|
D:----------------------------------------------------------------------------18-15-16-18-|
A:----------------------------------------------------------------------------------------|
E:----------------------------------------------------------------------------------------|

e:----------------|
B:----------------|
G:----------------|
D:-16-15----------|
A:-------18-16-15-|
E:----------------|

verse
e:--------------------------------------------------|
B:--------------------------------------------------|
G:---------------------------5-4-------5---5p4------|
D:-7-7--7--5--7-7-10---------5-4-------5---5p4------|
A:-5-5--5--3--5-5-8----0-0-0-----0-0-0---0----------|
E:--------------------------------------------------|

e:--------------|
B:--------------|
G:--------------|
D:--------------|
A:-10--9---12---|
E:-8---7---10---|

      pick slide
e:------------------|
B:------------------|
G:------------------|
D:--5-5--x\--4--7---|
A:--3-3--x\--2--5---|
E:------------------|

e:--------------------------------------------------------|
B:---------------------------5nh--------------------------|
G:-------5-4-------5-----5nh-----------5-4----7---7p5-----|
D:-------5-4-------5-5nh---------------5-4----7---7p5-----|
A:-0-0-0-----0-0-0---------------0-0-0------0---0-----7p5-|
E:--------------------------------------------------------|

e:--------------------------------------------------------|
B:---------------------------5nh--------------------------|
G:-------5-4-------5-----5nh-----------5-4----7---7p5-----|
D:-------5-4-------5-5nh---------------5-4----7---7p5-----|
A:-0-0-0-----0-0-0---------------0-0-0------0---0-----7p5-|
E:--------------------------------------------------------|


e:---------------------------------------|
B:---------------------------------------|
G:-7--7777777777777777777777777777777777-|
D:-7--7777777777777777777777777777777777-|
A:-5--5555555555555555555555555555555555-|
E:---------------------------------------|


e:--------------------------------------------------------------------------------|
B:--------------------------------------------------------------------------------|
G:-2--22222222--------------------------------------------------------------------|
D:-2--22222222-2------------------------------------------------------------------|
A:-0--00000000-0h3p0h3p0h3p0h3p0h3p0h3p0h3p0h3p0h3p0h3p0h3p0h3p0h3p0h3p0--(0)--7\-|
E:-----------------------------------------------------------------------------5\-|





Comments


Popular Slayer tabs & chords
Born Of Fire Bass Tabs
Die By The Sword 1 Bass Tabs
Disciple 2 Bass Tabs
Chemical Warfare Tabs
Dittohead Tabs
Divine Intervention Tabs
Point Tabs
South Of Heaven 4 Tabs
Strain Of Mind Tabs
What We´Re All About Tabs


Song lyrics



↑ Back to top | Tablatures and chords are parodies/interpretations of the original songs. You may use it for private study, scholarship, research or language learning purposes only
© 2014 AZChords.com Contact us | Privacy policy | DMCA | Add/correct tabs | Request tabs | Top 50 tabs