» » »

Slayer, Aggressive Tabs (ver.1)

Artists:  A B C D E F G H I J K L M N O P Q R S T U V W X Y Z # 

Aggressive Tabs (ver.1)

Slayer Tabs
Rating:
0/5 (0 votes)
Aggressive lessons Tabs too difficult? Try these video lessons and learn fast
                SLAYER - AGGRESSIVE PERFECTOR
(Show No Mercy, 1983)

Key
= after note = vibrato
^ after note = heavy vibrato 
\ = slide down
/ = slide up
+ = tap
h = hammer
p = pull
n = natural harmonic
s = pinching harmonic (squeal)
* = tremolo pick
t = trill
b = bend
|-3-| = triplet

n number above the tab = play the first part then the first finishing part
			 play the first part a second time and then play the second finishing part
			 etc.

Tune Down 1/2 Step

Riff 1

Eb -------------------------------------------
Bb -------------------------------------------
Gb -------12-11-------12-11-------12-11-7--9--
Db -------12-11-------12-11-------12-11-7--9--
Ab -------10-9 -------10-9 -------10-9 -5--7--
Eb -00-00-------00-00-------00-00-------------

Riff 2

Eb ----------------------------------------------------------------
Bb ----------------------------------------------------------------
Gb -4-4-4-4-4-4-4-4-----------------4-4-4-4-4-4-4-4-5-5-5-5-10-9-5-
Db -4-4-4-4-4-4-4-4-3-3-3-3-3-3-3-3-4-4-4-4-4-4-4-4-5-5-5-5-10-9-5-
Ab -2-2-2-2-2-2-2-2-3-3-3-3-3-3-3-3-2-2-2-2-2-2-2-2-3-3-3-3-8 -7-3-
Eb -----------------1-1-1-1-1-1-1-1--------------------------------
							    |-3--|

Riff 3

Eb --------------------------------------
Bb --------------------------------------
Gb --------------------------------------
Db -7--------6--------10--------9--------
Ab -7--------6--------10--------9--------
Eb -5--------4--------8 --------7--------

Riff 4

Eb ----------------
Bb ----------------
Gb ----------------
Db ----------------
Ab -0-2--0-2-------
Eb ----------3-2-0-

Riff 5

Eb -------------------------------------------------------------------------------------------------
Bb -------------------------------------------------------------------------------------------------
Gb -------------------------------------------------------------------------------------------------
Db -------------------------------------------------------------------------------------------------
Ab -22-22-22-22-22-22-22-22-00-00-00-00-00-00-00-00-33-33-33-33-33-33-33-33-22-22-22-22-22-22-22-22-
Eb -------------------------------------------------------------------------------------------------

Riff 6

Eb ---------------------------------------
Bb ---------------------------------------
Gb -9--------9--------9-------------------
Db -9--------9--------9-------------------
Ab -7--------7--------7-------------------
Eb ---0-00-0---0-00-0---0-00-0-00-0-00-00-

Riff 7

Eb ---------------------------------
Bb ---------------------------------
Gb -4-4-4-4-5-5-5-5-----------------
Db -4-4-4-4-5-5-5-5-----------------
Ab -2-2-2-2-3-3-3-3-----------------
Eb -----------------0-0-00-0-0-00-0-

Riff 7A

Eb -------------------------------
Bb -------------------------------
Gb -4-4-4-5-5-5-------------------
Db -4-4-4-5-5-5-------------------
Ab -2-2-2-3-3-3-------------------
Eb -------------0-0-00-0-0-0-00-0-
    |-3-| |-3-|

Riff 7B

Eb ---------------------------
Bb ---------------------------
Gb -4-4-4-5-5-5-5-5-5-5-5-5-9-
Db -4-4-4-5-5-5-5-5-5-5-5-5-9-
Ab -2-2-2-3-3-3-3-3-3-3-3-3-7-
Eb ---------------------------
    |-3-| |-3-| |-3-| |-3-| 

Order

Riff 1 x 8
Riff 2 x 2
Riff 1 x 8
Riff 2 x 2
Riff 3 x 2
Riff 4 x 8
Solo over Riff 5 x 4
Riff 2 x 2
Solo over Riff 6 x 14
Riff 7 x 4
Riff 7A x 3
Riff 7B x 1
            

comments powered by Disqus
↑ Back to top | Slayer Tabs for Aggressive. Lyrics for acoustic guitar and electric guitar. Tablatures and chords are parodies/interpretations of the original songs. You may use it for private study, scholarship, research or language learning purposes only