>
 >
Take It Away 1

Take It Away 1 Guitar Tabs

Slashs Snakepit - Take It Away 1 chords, tabs, tablatures, lyrics

Guitar lessons | Add/correct | Request | Top 50 tabs Artists:  A B C D E F G H I J K L M N O P Q R S T U V W X Y Z 0-9

Take It Away 1 Guitar Tabs – Slashs Snakepit

CD, Sheet music, Poster

Do you like Take It Away 1? Share with your friends now
TabsTabs v2
-------------------------------------------------------------------------------
                             Take It Away - Slashs Snakepit
-------------------------------------------------------------------------------

Tuning: Eb tuning

  Guitar 1 intro
e|----5-----------------8---8--6----------5----3----8--8--6----------------|
B|------6---------8------8---8--6-------6------------8--8--6---------------|
G|--------5----/7---------------------7-----/4--------7-----7--------------|
D|-0---------0----------------------0--------------------------------------|
A|-------------------------------------------------------------------------|
E|-------------------------------------------------------------------------|

  Guitar 2 intro
e|-------------------------------------------------------------------------|
B|-------------------------------------------------------------------------|
G|-----------------2-0-0--------2-0-0----------2-0-0--------2-0-0----------|
D|--------------------3-3-0--------3-3-0----------3-3-0--------3-3-0-------|
A|-------------------------------------------------------------------------|
E|-------------------------------------------------------------------------|


  And then(0:18) :   (Repeat X2)
e|--------------------------------------------------------|----------------|
B|-10\--5--8-6--10\--5--8-6--10\--5--8-6--8b-8b-8br-6-8-6-|----------------|
G|-10\--5--7-5--10\--5--7-5--10\--5--7-5-------------7----|----------------|
D|-10\--5-------10\--5-------10\--5-----------------------|--7-------------|
A|--------------------------------------------------------|--7-----12\-----|
E|--------------------------------------------------------|--5-------------|
                                                          (Second time only)
  Rythme (0:48)
e|-------------------------------------------------------------------------|
B|---5----------5----------5-----------------------------------------------|
G|-7-5--------7-5--------7-5-----------------------------------------------|
D|-7-5-5-5-3--7-5-5-5-3--7-5-5-5-3-----------------------------------------|
A|-5---5-5-3--5---5-5-3--5---5-5-3-------------3---------------------------|
E|-----3-3-1------3-3-1------3-3-1--3-1-3-1-3-1----------------------------|

  Lead:  (0:55)
e|-------------------------------------------------------------------------|
B|-6----------6----------6-------------------------------------------------|
G|-8b--5-7----8b--5-7----8b--5-7---/7-5------------------------------------|
D|----7-7-5------7-7-5------7-7-5------5-5---------------------------------|
A|---------5----------5----------5------8-8-5------------------------------|
E|-------------------------------------------------------------------------|

 And Then: (1:08)
e|---5--------------8---8--8--6-------5---3----8--8--6---------------------|
B|-----6----------8------8--8--6-----3---3------8--8--6--------------------|
G|-------7------7---------7-----7---5---4--------7-----7-------------------|
D|-0---------8-------------------------------------------------------------|
A|-------------------------------------------------------------------------|
E|-------------------------------------------------------------------------|

e|-------------------------------------------------------------------------|
B|-------------------------------------------------------------------------|
G|--------6-5----------9-8-----------------------8-8-8-8-7-7-7-7-----------|
D|------5-5-5--------8-8-8---10-10-10-10-6-6-6-6-8-8-8-8-7-7-7-7-----------|
A|-5--5-3-3-3---8--8-6-6-6---10-10-10-10-6-6-6-6-6-6-6-6-5-5-5-5-----------|
E|-3--3---------6--6---------9--9--9--9--4-4-4-4---------------------------|
  [    X4    ] [    X2    ]


  At 2:15
e|-------------------------------------------------------------------------|
B|-10-10-10-10-8-8-8-8--15-15-15-15--10-10-10-10-13-13-13-13-8-8-8-8-------|
G|-9--9--9--9--7-7-7-7--14-14-14-14--9--9--9--9--12-12-12-12-7-7-7-7-------|
D|-7--7--7--7--5-5-5-5--12-12-12-12--7--7--7--7--10-10-10-10-5-5-5-5-------|
A|-7--7--7--7--5-5-5-5--12-12-12-12--7--7--7--7--10-10-10-10-5-5-5-5-------|
E|-------------------------------------------------------------------------|
  [     X4   ][   X2  ][    X2     ][     X4    ][    X2   ][   X2    ]


Guitar Solo: (Go Slash!)key of Db
e|------13b-13-12-13-12131210-12-10----------------------------------------|
B|-10------------------------------13b-10-13-10-----------------13---------|
G|-12b-----------------------------------------13-12-10-12-10-12b----------|
D|-------------------------------------------------------------------------|
A|-------------------------------------------------------------------------|
E|-------------------------------------------------------------------------|

e|-------------------10-10--10-10-10-10-10-10--10-13--10-13-10-13-10-13-10-|
B|-13--13-10--10--13b-----13b---13b---13b----12b----12b---12b---12b--------|
G|----------12-------------------------------------------------------------|
D|-------------------------------------------------------------------------|
A|-------------------------------------------------------------------------|
E|-------------------------------------------------------------------------|

e|---------------------------------------------13b-15b-13------10--10-10---|
B|--------------------------------------13-13------------15--13b-13b-------|
G|--/7-5--------/7-5--/10-7--12-10----12b----12----------------------------|
D|------5-5-----------------------12---------------------------------------|
A|---------8-5-------------------------------------------------------------|
E|-------------------------------------------------------------------------|

e|-------------------------------------------------------------------------|
B|---10--10--------10-13b--13-10-13-10--------------12-10--12--------------|
G|-12b-12b-12b--12b-------------------10-12-10------12-10--12-10-12-10-----|
D|--------------------------------------------12-10-12-10--12---------12-10|
A|-------------------------------------------------------------------------|
E|-------------------------------------------------------------------------|

e|-------------------------------------------------------------------------|
B|-12-10--10-10-10-10------------------------------------------------------|
G|-12-10--10-10-10-10-12---------------------------------------------------|
D|-12-10--10-10-10-10---12--10---------------------------------------------|
A|----------------------------11-10-8--------------------------------------|
E|-------------------------------------------------------------------------|

************************************

| /   slide up
| \   slide down
| h   hammer-on
| p   pull-off
| ~   vibrato
| +   harmonic
| x   Mute note
| b   Bend
| pb  Pre-bend
| br  Bend release
| pbr Pre-bend release
| brb Bend release bend

************************************





Comments


Popular Slashs Snakepit tabs & chords
Shine Bass Tabs
Speed Parade Chords
Alien Tabs
Back And Forth Again 4 Tabs
Beggars And Hangers On (Intro) Tabs
Beggars And Hangers On Intro 4 Tabs
Lower 1 Tabs
Shine 1 Tabs
Wild Horses Tabs
Back And Forth Again Ukulele


Song lyrics



↑ Back to top | Tablatures and chords are parodies/interpretations of the original songs. You may use it for private study, scholarship, research or language learning purposes only
© 2014 AZChords.com Contact us | Privacy policy | DMCA | Add/correct tabs | Request tabs | Top 50 tabs