>
 >
Shine

Shine Bass Tabs

Slashs Snakepit - Shine chords, tabs, tablatures, lyrics

Guitar lessons | Add/correct | Request | Top 50 tabs Artists:  A B C D E F G H I J K L M N O P Q R S T U V W X Y Z 0-9

Shine Bass Tabs – Slashs Snakepit

CD, Sheet music, Poster

Do you like Shine? Share with your friends now
Bass TabsBass Tabs v2TabsTabs v2
Slashs Snakepit
(Ain't Life Grand)
Tuning: Eb,Ab,Db,Gb
Played by J Griparic
Tempo - 79 BPM 

Intro - W/Synth

|---|------------|-----------|-----------|-----------||
|---|---------0h2|--------0h2|--------0h2|--------0h2||
|---|------------|-----------|-----------|-----------||
|000|000000000---|00000000---|00000000---|00000000---||
>ESS ESSESEESES S/EEESEESES S/EEESEESES S/EEESEESES S

Slide Solo - Clean Bass

|----------||
|--------02||  X10
|----------||
|00000000--||
>EEESEESESS

Verse ("You Turn Me On...")
|----------||
|--------02|| X8
|----------||
|00000000--||
>EEESEESESS

Pre-Chorus ("I've Been Wasted..")
|----------------|
|----------------|X4
|567-----567-567-|
|----567---------|
>SSE SSE SSE SSE

("They really do write the songs")
|--------|----------||
|--------|----------||
|33333333|4444000000||
|--------|----------||
>EEEEEEEE/EEEESSSSEE

Chorus (Shine) 
|-----------------|
|-----------------| X4
|----5675-5-------|
|3-0--------70765x|
>E E SSSS}E SSSSSS

(Stand Beneath The Sun...")
|--------------|---------||
|--------------|---------||
|3-x2-x0-x-----|---------||
|---------3-x22|0--------||
>E SE SE SE SEE/W

Pre-Verse (Slide Solo II)
|----------||
|--------02|| X4
|----------||
|00000000--||
>EEESEESESS

Verse ("I Shed My Skin...")
|----------||
|--------02|| X4
|----------||
|00000000--||
>EEESEESESS

Pre-Chorus ("I've Been Wasted..")
|----------------|
|----------------|X4
|567-----567-567-|
|----567---------|
>SSE SSE SSE SSE

("They really do write the songs")
|--------|----------||
|--------|----------||
|33333333|4444000000||
|--------|----------||
>EEEEEEEE/EEEESSSSEE

Chorus ("Shine") 
|-----------------|
|-----------------| X8 
|----5675-5-------|
|3-0--------70765x|
>E E SSSS}E SSSSSS

("Stand Beneath The Sun...")
|--------------|---------|------------||
|--------------|---------|------------||
|3-x2-x0-x-----|---------|------------||
|---------3-x22|222222222|111111111111||
>E SE SE SE SEE/EEEEEEEEE/EEEESSSSSSSS 

Interlude ("So Violated...")
|--------|--------|
|--------|--------| X7
|000-000-|000-000-| 
|--------|--------|
>EEQ EEQ /EEQ EEQ

|--------|-----------||
|--------|-----------||
|000-000-|5-x5-x7---7||
|--------|-----------||
>EEQ EEQ /E SE SH   E

Slide Solo III
|----------||
|--------02|| X4
|----------||
|00000000--||
>EEESEESESS

Guitar Solo
|--------|--------|
|--------|--------| X6
|77776666|55554444|
|--------|--------|
>EEEEEEEE/EEEEEEEE  

|--------|----------------|
|--------|----------------|
|77776666|3-x2-x0-x-------| 
|--------|---------3-x2-2-|
>EEEEEEEE E SE SE SE SE E

|----------------|----------------||
|----------------|----------------||
|----------------|2222222222222222||
|2-2-2-2-2-2-2-2-|----------------||
>E E E E E E E E /SSSSSSSSSSSSSSSS

Out Chorus ("Shine") 
|-----------------|
|-----------------| X8 
|----5675-5-------|
|3-0--------70765x|
>E E SSSS}E SSSSSS

("Stand Beneath The Sun...")
|--------------|---------|------------||
|--------------|---------|------------||
|3-x2-x0-x-----|---------|------------||
|---------3-x22|222222222|111111111111||
>E SE SE SE SEE EEEEEEEEE EEEESSSSSSSS

End
|--------|-------|-------|-------||
|--------|-------|-------|-------||
|--------|-------|-------|-------||
|0-------|0~~~~~~|0~~~~~~|0~~~~~~||
>W}

Key
X-Muted Note
}-Tied Note
W-Whole Note-------> These are all Rhythm markings and  
H-Half Note--------> they dictate how long the note they 
Q-Quatre Note------> are placed underneath is held for.
E-Eighth Note------> E.G. A Half note is held for half
S-Sixteenth Note---> of a bar and so on.
h-Hammer On





Comments


Popular Slashs Snakepit tabs & chords
Mean Bone Bass Tabs
Alien Tabs
Beggars And Hangers On Intro 1 Tabs
Beggars And Hangers On Intro 4 Tabs
Doin Fine Intro Tabs
I Hate Everybody Tabs
Jizz Tabs
Lower 2 Tabs
Soma City Ward 1 Tabs
Take It Away 1 Tabs


Song lyrics



↑ Back to top | Tablatures and chords are parodies/interpretations of the original songs. You may use it for private study, scholarship, research or language learning purposes only
© 2014 AZChords.com Contact us | Privacy policy | DMCA | Add/correct tabs | Request tabs | Top 50 tabs