» » »

Landslide Tabs (ver.1)

Artists:  A B C D E F G H I J K L M N O P Q R S T U V W X Y Z # 

Landslide Tabs (ver.1)

Slashs Snakepit
Rating:
2/5 (3 votes)

Hard to play? Try these video lessons and learn fast.
                Written by
SLASH's Snakepit


|---------------------------------------------------------------------|
|---------------------------------------------------------------------|
|---------------------------------------------------------------------|
|------2-5-2------------2-5-2------------2-5-2--------2-----2-4-2-----|
|-5h6--------5-4-0--5h6-------5-4-0--5h6-------5-4-0--0-----0-2-0---2-|
|--------------------------------------------------------3--------3-0-|

|---------------------------------------------------------------------|
|------5-8-5------------5-8-5------------5-8-5------------------------|
|-7b8--------7-6----7b8-------7-6----7b8-------7-6--------------------|
|----------------7----------------7----------------7--2-----2-4-2-----|
|-----------------------------------------------------0-----0-2-0---2-|
|--------------------------------------------------------3--------3-0-|

|---------------------------------------------------------------------|
|------3-4---3h4--------3-4---3h4---------3-4---3h4-------------------|
|------3-4---3h4--------3-4---3h4---------3-4---3h4-------------------|
|-2----------------2-----------------2----------------2-----2-4-2-----|
|-2----------------2-----------------2----------------0-----0-2-0---2-|
|-0--------0-------0-------0---------0--------0----------3--------3-0-|

|----------------------| |---------------------------------------|
|----------------------| |---------------------------------------|
|-5---5-5-5--7---7-5-4-| |-5--5-5-5--4-5-4-5-4-5-4-5-4-5-4-5-4-5-|
|-5---5-5-5--7---7-5-4-| |-5--5-5-5--4-5-4-5-4-5-4-5-4-5-4-5-4-5-|
|-3---3-3-3--5---5-3-2-| |-3--3-3-3--2-3-2-3-2-3-2-3-2-3-2-3-2-3-|
|----------------------| |---------------------------------------|

           |--------------------------------------------------------|
           |--------------------------------------------------------|
           |---------------------------2--2--2-2-2--5--5-5--7-7-7-7-|
           |-2--2--2-2-2--5--5--5-5-5--2--2--2-2-2--5--5-5--7-7-7-7-|
           |-2--2--2-2-2--5--5--5-5-5--0--0--0-0-0--3--3-3--5-5-5-5-|
           |-0--0--0-0-0--3--3--3-3-3-------------------------------|

|--------------------------------------------|
|--------------------------------------------|
|-5--5-5-5-5--7--7-7-7-7--2--2-2-2-2-2-2-2-2-|
|-5--5-5-5-5--7--7-7-7-7--2--2-2-2-2-2-2-2-2-|
|-3--3-3-3-3--5--5-5-5-5--0--0-0-0-0-0-0-0-0-|
|--------------------------------------------|
            
Hard to play? Try these video lessons and learn fast. | Correct




comments powered by Disqus
↑ Back to top | Tablatures and chords are parodies/interpretations of the original songs. You may use it for private study, scholarship, research or language learning purposes only