>
 >
Landslide

Landslide Bass Tabs

Slashs Snakepit - Landslide chords, tabs, tablatures, lyrics

Guitar lessons | Add/correct | Request | Top 50 tabs Artists:  A B C D E F G H I J K L M N O P Q R S T U V W X Y Z 0-9

Landslide Bass Tabs – Slashs Snakepit

CD, Sheet music, Poster

Do you like Landslide? Share with your friends now
Bass TabsTabs
================================================================================
Landslide - Slash's Snakepit
================================================================================

Tuning: 1/2 a step down on all strings

/ = slide (while picking)
s = slide
h = hammer-on
p = pull-off
H = hold/bend/ring

INTRO:
F#--------------------------------------------------------------------------|
C#--------------------------------------------------------------------------|
G#--------------------------------------------------------------------------|
D#--0-0-00000000000000000000000000000-00000000000000000000000-5-3-5-7-5-3-0-|

F#-----------------------------------------------------------|
C#-----------------------------------------------------------|
G#----------5p4-----------5p4-----------5p4------------------|
D#--0-0-3-5-----0-0-0-3-5-----0-0-0-3-5-----0-5-3-5-7-5-3-0--| x2

VERSE:
F#---------------------------------------------------------------|
C#---------------------------------------------------------------|
G#---------------------------------------------------------------|
D#--0-0-0-0-0-0-0-0-0-0-0-0-0-0-0-0-0-0-0-0-0-0-0--5-3-5-7-5-3-0-| x4

PRE CHORUS 1:
F#-----------------------------------------------------------------------------|
C#-----------------------------------------------------------------------------|
G#--3-3-3-2-3s5-------0-3-5--3-3-3-2-3s5-5-5-2-2-2-0--3-3-3-2-3s5-------0-3-5--|
D#--------------0-2-3---------------------------------------------0-2-3--------|

F#---------------------------------------------|
C#---------------------------------------------|
G#--3-3-5-3-0-2-3-2-3-2-3-2-3-2-3-2-3-2--------|
D#--------------------------------------3-3-2--|

CHORUS 1:
F#-------------------------------------------------|
C#-------------------------------------------------|
G#----------------------------------3-33-5-55------|
D#--0-0-00-00h2h3-3-333-2h3-5-5-555-----------3-2--|

F#-------------------------------------------------|
C#--------------------------------------3h5--4h5s7-|
G#-------------------------------------3----5------|
D#--0-0-00-00h2h3-3-333-2h3-5-5-55p3h5-------------|

F#--------------------------------------------------|
C#--------------------------------------------------|
G#------------7-6-5-5-55-0-2-4-4-4-0h2h3-2-3-5-3-55-|
D#--0--2--3-5---------------------------------------|

F#-------------------------------------------------|
C#-------------------------------------------------|
G#--3-3-33-2h3s5-----------------------------------|
D#---------------0-2-3-5-55-3h55-3h5-3-5-7-5-3-0---|

PRE VERSE:
F#-----------------------------------------------------------|
C#-----------------------------------------------------------|
G#----------5p4-----------5p4-----------5p4------------------|
D#--0-0-3-5-----0-0-0-3-5-----0-0-0-3-5-----0-5-3-5-7-5-3-0--|

VERSE:
F#---------------------------------------------------------------|
C#---------------------------------------------------------------|
G#---------------------------------------------------------------|
D#--0-0-0-0-0-0-0-0-0-0-0-0-0-0-0-0-0-0-0-0-0-0-0--5-3-5-7-5-3-0-| x2

PRE CHORUS 2:
F#-----------------------------------------------------------------------------|
C#-----------------------------------------------------------------------------|
G#--3-3-3-2-3s5-------0-3-5--3-3-3-2-3s5-5-5-2-2-2-0--3-3-3-2-3s5-------0-3-5--|
D#--------------0-2-3---------------------------------------------0-2-3--------|

F#---------------------------------------------|
C#---------------------------------------------|
G#--3-3-5-3-0-2-3-2-3-2-3-2-3-2-3-2-3-2--------|
D#--------------------------------------3-3-2--|

CHORUS 2:
F#-------------------------------------------------|
C#-------------------------------------------------|
G#----------------------------------3-33-5-55------|
D#--0-0-00-00h2h3-3-333-2h3-5-5-555-----------3-2--|

F#-------------------------------------------------|
C#--------------------------------------3h5--4h5s7-|
G#-------------------------------------3----5------|
D#--0-0-00-00h2h3-3-333-2h3-5-5-55p3h5-------------|

F#--------------------------------------------------|
C#--------------------------------------------------|
G#------------7-6-5-5-55-0-2-4-4-4-0h2h3-2-3-5-3-55-|
D#--0--2--3-5---------------------------------------|

F#-------------------------------------------------|
C#-------------------------------------------------|
G#--3-3-33-2h3s5-----------------------------------|
D#---------------0-2-3-5-55-555-3h5p3h55-3H--------|

BRIDGE:
F#----------------------------------|
C#----------------------------------|
G#----------------------------------|
D#--0H-----------3s8H----7H----12s0-|

F#------------------5-----4---------|
C#----------------------------------|
G#-----7-----7---3-----2------------|
D#--0-----0--------------------12s0-|

F#---------------------5-----------4-----|
C#---------------------------------------|
G#-----7----------1s3----3h5p3--2--------|
D#--0----12s-0--0------------------------|

F#--------------------------------------------------------------------|
C#------------------------3h5p3-2H------------------------------------|
G#--0-------s12--0-0--------------------------------------------------|
D#---------------------------------0-0-000000000000000000000000000000-|

SOLO:
F#-----------------------------------------------------------|
C#-----------------------------------------------------------|
G#----------5p4-----------5p4-----------5p4------------------|
D#--0-0-3-5-----0-0-0-3-5-----0-0-0-3-5-----0-5-3-5-7-5-3-0--| x4

PRE CHORUS 3:
F#-----------------------------------------------------------------------------|
C#-----------------------------------------------------------------------------|
G#--3-3-3-2-3s5-------0-3-5--3-3-3-2-3s5-5-5-2-2-2-0--3-3-3-2-3s5-------0-3-5--|
D#--------------0-2-3---------------------------------------------0-2-3--------|

F#---------------------------------------------|
C#---------------------------------------------|
G#--3-3-5-3-0-2-3-2-3-2-3-2-3-2-3-2-3-2--------|
D#--------------------------------------3-3-2--|

CHORUS 3:
F#-------------------------------------------------|
C#-------------------------------------------------|
G#----------------------------------3-33-5-55------|
D#--0-0-00-00h2h3-3-333-2h3-5-5-555-----------3-2--|

F#-------------------------------------------------|
C#--------------------------------------3h5--4h5s7-|
G#-------------------------------------3----5------|
D#--0-0-00-00h2h3-3-333-2h3-5-5-55p3h5-------------|

F#--------------------------------------------------|
C#--------------------------------------------------|
G#------------7-6-5-5-55-0-2-4-4-4-0h2h3-2-3-5-3-55-|
D#--0--2--3-5---------------------------------------|

F#-------------------------------------------------|
C#-------------------------------------------------|
G#--3-3-33-2h3s5-----------------------------------|
D#---------------0-2-3-5-55-3h55-3h5-3-5-7-5-3-0---|

F#---------------------|
C#---------------------|
G#--3-3-33-2h3s5-55555-|
D#---------------------|

ENDING:
F#-----------------------------------------------------------|
C#-----------------------------------------------------------|
G#----------5p4-----------5p4-----------5p4------------------|
D#--0-0-3-5-----0-0-0-3-5-----0-0-0-3-5-----0-5-3-5-7-5-3-0--| x4

=============================================================================





Comments


Popular Slashs Snakepit tabs & chords
Beggars And Hangers On Bass Tabs
Ain't Life Grand Tabs
Beggars And Hangers On (Solo) Tabs
Dime Store Rock Tabs
Dime Store Rock 1 Tabs
Give In To Me Tabs
Neither Can I (Solo) Tabs
Serial Killer 1 Tabs
Some City Ward Tabs
Taman Astakona Ukulele


Song lyrics



↑ Back to top | Tablatures and chords are parodies/interpretations of the original songs. You may use it for private study, scholarship, research or language learning purposes only
© 2014 AZChords.com Contact us | Privacy policy | DMCA | Add/correct tabs | Request tabs | Top 50 tabs