» » »

Been There Lately Bass tabs (ver.1)

Artists:  A B C D E F G H I J K L M N O P Q R S T U V W X Y Z # 

Been There Lately Bass tabs (ver.1)

Slashs Snakepit
Rating:
5/5 (1 vote)

Hard to play? Try these video lessons and learn fast.
                Been There Lately - Slash's Snakepit

The slightly tricky bit it the timing, listen to the changes in the song & you wont go far wrong

During the song Johnny Griparic tends to slide between octaves on most
sections, once you have become familiar with the basic structure
you can try this yourself, it makes for a great bass line
and goes down great when preformed live.

Please rate ;-)

All the best
Derm

Intro
|-----------------------------------||
|-----------------------------------||
|--5-5-5-5-5-5-5-5-5-5-5-5-5-5-5-5--||
|-----------------------------------||

Main riff
||------------------------------||-------------------||
||-------5-------3-3-h-5--------||----------------5--||
||------------------------------||------8-7-4-5------||
||--3-----3------------3---15/--||--3-6---------6----||

||------------------------------||-------------------||
||-------5-------3-3-h-5--------||----------------5--||
||------------------------------||------8-7-4-5------||
||--3-----3------------3---15/--||--3-6---------6----||

Verse (Have seen them raise an eye, I'm coming home)
||-------------------------||
||-------5-------3-3-h-5---||
||-------------------------||
||--3-----3--------------3-||

||-------------------------||
||-------5-------3-2-------||
||-------------------3-----||
||--3-----3----------------||

Bridge (A beautiful shade of blue 'n pale)
||------------------------------||------------------------------||
||------------------------------||------------------------------||
||--3-3-3-3-3-3-3-3-3-3-3-1-1---||--3-3-3-3-3-3-3-3-3-3-3-1-1---||
||------------------------------||------------------------------||
 (Stop your cryin)
||------------------------------||------------------------------||
||------------------------------||------------------------------||
||------------------------------||------------------------------||
||--3-3-3-3-3-3-3-3-3-3-3-1-1---||--3-3-3-3-3-3-3-3-3-3-3-3-3---||
 (Well I'm Lazy now...)
||------------------------------||------------------------------||
||------------------------------||------------------------------||
||------------------------------||--3-3-3-3-3-3-3-3-3-3-3-3-3---||
||--5-5-5-5-5-5-5-5-5-5-5-5-5---||------------------------------||

||---------------------|
||---------------------|
||---------------------|
||--0-0-1-1-2-2-3-3----|

Chorus (My Motor, my thrills, I needed my space)
||---------------------------------------------------------||
||---------------------------------------------------------||
||---------------6-6-6-6-6-6-6-3-3-3-3-3-3-1---3-3-3-3-3-1-||
||-3-3-3-3-3-3-3-------------------------------------------||

||---------------------------------------------------------||
||---------------------------------------------------------||
||---------------6-6-6-6-6-6-6-3-3-3-3-3-3-1---3-3-3-3-3-1-||
||-3-3-3-3-3-3-3-------------------------------------------||
 (Ain't been there lately)
||--------------------------||---------------------------||
||--------------------------||---------------------------||
||-------------3-3-3-3-3-1--||--------------3-3-3-3-3-1--||
||-3-3-3-3-3-3--------------||--3-3-3-3-3-3--------------||

(Ain't been there lately there's no room  No, no)
||--------------------------------------||
||--------------------------------------||
||-6-6-6-6-6-6-------------5-5-5-5-5-5--||
||-------------6-6-6-6-6-6--------------||




Main riff
||------------------------------||-------------------||
||-------5-------3-3-h-5--------||----------------5--||
||------------------------------||------8-7-4-5------||
||--3-----3------------3---15/--||--3-6---------6----||

||------------------------------||-------------------||
||-------5-------3-3-h-5--------||-------------------||
||------------------------------||------8-7----------||
||--3-----3------------3---15/--||--3-6--------------||

Verse
||-------------------------||
||-------5-------3-3-h-5---||
||-------------------------||
||--3-----3--------------3-||

||-------------------------||
||-------5-------3-2-------||
||-------------------3-----||
||--3-----3----------------||

Bridge
||------------------------------||------------------------------||
||------------------------------||------------------------------||
||--3-3-3-3-3-3-3-3-3-3-3-1-1---||--3-3-3-3-3-3-3-3-3-3-3-1-1---||
||------------------------------||------------------------------||

||------------------------------||------------------------------||
||------------------------------||------------------------------||
||------------------------------||------------------------------||
||--3-3-3-3-3-3-3-3-3-3-3-1-1---||--3-3-3-3-3-3-3-3-3-3-3-3-3---||

||------------------------------||------------------------------||
||------------------------------||------------------------------||
||------------------------------||--3-3-3-3-3-3-3-3-3-3-3-3-3---||
||--5-5-5-5-5-5-5-5-5-5-5-5-5---||------------------------------||

||---------------------|
||---------------------|
||---------------------|
||--0-0-1-1-2-2-3-3----|

Chorus
||---------------------------------------------------------||
||---------------------------------------------------------||
||---------------6-6-6-6-6-6-6-3-3-3-3-3-3-1---3-3-3-3-3-1-||
||-3-3-3-3-3-3-3-------------------------------------------||

||---------------------------------------------------------||
||---------------------------------------------------------||
||---------------6-6-6-6-6-6-6-3-3-3-3-3-3-1---3-3-3-3-3-1-||
||-3-3-3-3-3-3-3-------------------------------------------||

||--------------------------||---------------------------||
||--------------------------||---------------------------||
||-------------3-3-3-3-3-1--||--------------3-3-3-3-3-1--||
||-3-3-3-3-3-3--------------||--3-3-3-3-3-3--------------||


||---------------------------------------||
||---------------------------------------||
||-6-6-6-6-6-6-------------5-5-5-5-5-5---||
||-------------6-6-6-6-6-6-------------3-||

Drop out for start of solo then return with a run to C i.e.
||----------------|
||----------------|
||----------1-2-3-|
||/-/-1-2-3-------|

Solo = start same as Bridge
||------------------------------||------------------------------||
||------------------------------||------------------------------||
||--3-3-3-3-3-3-3-3-3-3-3-1-1---||--3-3-3-3-3-3-3-3-3-3-3-1-1---||
||------------------------------||------------------------------||

||------------------------------||------------------------------||
||------------------------------||------------------------------||
||------------------------------||------------------------------||
||--3-3-3-3-3-3-3-3-3-3-3-1-1---||--3-3-3-3-3-3-3-3-3-3-3-3-3---||

||------------------------------||------------------------------||
||------------------------------||------------------------------||
||------------------------------||--3-3-3-3-3-3-3-3-3-3-3-3-3---||
||--5-5-5-5-5-5-5-5-5-5-5-5-5---||------------------------------||

||------------------------------||------------------------------||
||------------------------------||------------------------------||
||--6-6-6-6-6-6-6-6-6-6-6-6-6---||--1-1-1-1-1-1-1-1-1-1-1-1-1---||
||------------------------------||------------------------------||

||------------------------------|
||------------------------------|
||--5-5-5-5-5-5-5-5-5-5-5-5-5---|
||------------------------------|


Main riff
||------------------------------||-------------------||
||-------5-------3-3-h-5--------||----------------5--||
||------------------------------||------8-7-4-5------||
||--3-----3------------3---15/--||--3-6---------6----||

||------------------------------||-------------------||
||-------5-------3-3-h-5--------||-------------------||
||------------------------------||------8-7----------||
||--3-----3------------3---15/--||--3-6--------------||

Chorus
||---------------------------------------------------------||
||---------------------------------------------------------||
||---------------6-6-6-6-6-6-6-3-3-3-3-3-3-1---3-3-3-3-3-1-||
||-3-3-3-3-3-3-3-------------------------------------------||

He plays the above a few time then slides up an Octave to...
||------------------------------------------------------------------------||
||------------------13-13-13-13-13-13-10-10-10-10-10-8----10-10-10-10-10-8||
||-10-10-10-10-10-10------------------------------------------------------||
||-------------------------------------------------------------- ---------||

 
||-------------------------------------||
||-------------------10-10-10-10-10-8--||
||-10-10-10-10-10-10-------------------||
||-------------------------------------||

||----------------------------------------------||
||--12---12---12---12---12---12---12---12-------||
||------------------------------------------10--||
||----------------------------------------------||
            
Hard to play? Try these video lessons and learn fast. | Correct




comments powered by Disqus
↑ Back to top | Tablatures and chords are parodies/interpretations of the original songs. You may use it for private study, scholarship, research or language learning purposes only