» » »

Been There Lately Tabs (ver.2)

Artists:  A B C D E F G H I J K L M N O P Q R S T U V W X Y Z # 

Been There Lately Tabs (ver.2)

Slashs Snakepit
Rating:
0/5 (0 votes)

Hard to play? Try these video lessons and learn fast.
                Slashs Snakepit
Been there lately 



|---------------------------------------------------|
|   This is my own version of the song              |
|---------------------------------------------------|


This is from slash's snakepits new album aint life grand
this song is called "been there latley"
its tuned down half a step
Its in the key of G. He uses a crybaby.  Theirs two guitars one does a lot of pick scratching.
Theres a groove to this song so get into it if you want it to sound good.  Hold out the chords
to figure this tab out i didnt write it with time mesures, but its correct.
\
Intro reapeat 2x
|-------------------------------------|
|-7--7--7-7-7-7-7-7-7-7-7--7-7-7-7----|
|-7--7--7-7-7-7-7-7-7-7-7--7-7-7-7----|
|-7--7--7-7-7-7-7-7-7-7-7--7-7-7-7----|
|-5--5--5-5-5-5-5-5-5-5-5--5-5-5-5----|
|-------------------------------------|
intro riff play 2x
|----------------------------------------------------------|
|----------------------------------------------------------|
|----------------------------------------------------------|
|---x-x-x-5---x-x---3--3h5----x-x-------------3-2----0-3-5-|
|---x-x-x-----x-x-------------x-x-----------5------3-------|
|-3-x-x-x---3-x-x-3---------3-x-x-7/12/7--3----------------|
verse riff repeat 2x
|---------------------------------------------------|
|---------------------------------------------------|
|---------------------------------------------------|
|---x-x-x-5---x-x-----------x-x-x-5---x-x----3-2----|
|---x-x-x-----x-x---3-3h5---x-x-x-----x-x--------3--|
|-3-x-x-x---3-x-x-3-------3-x-x-x---3-x-x--3--------|
Next part
|------------------------------------------|
|------------------------------------------|
|-5-5-5-x-5-5-5--3-3---5-5-5-x-5-5-5--3-3--|
|-5-5-5-x-5-5-5--3-3---5-5-5-x-5-5-5--3-3--|
|-3-3-3-x-3-3-3--1-1---3-3-3-x-3-3-3--1-1--|
|------------------------------------------|continue below
   "...a beutiful.."
|--------------------------------------|
|--------------------------------------|
|----------------10--10v/--------------|
|--5------5------10--10v/----5------5--|
|--5------5------8---8-------5------5--|
|--3------3------------------3------3--|continue below
   "..stop youre cryin.."

|----------------------------------------|
|----------------------------------------|
|-2-----------4b-4-4-2-2-4----5----------|
|-2-------2h4-----------------5--------5-|
|-0--2h4----------------------3--------5-|
|--------------------------------------3-|continue below
                               
next part repeat 2x
|-continue------------------------------------------|
|---------------------------------------------------|
|--4----------8-------5--5-5p3-3-5-3--5-5-5p3-3-5-3-|
|--5----------8-------5--5-5-3-3-5-3--5-5-5-3-3-5-3-|
|--5----------6-------3---------------3-------------|
|--3------------------------------------------------|
   "...i need my space..."
next part repeat 2X
|------------------------|  
|------------------------| 
|-------5---5-5p3-3-5-3--| 
|--5----5---5-5p3-3-5-3--|    
|--5----3----------------|
|--3---------------------|   
"...aint been there latley.."  
|---------------------------|
|---------------------------|
|-8--------3----------------|
|-8--------3----------------|
|-6--------1---repeat intro-|
|---------------------------|
"aint been there lately...thers no room"
            
Hard to play? Try these video lessons and learn fast. | Correct




comments powered by Disqus
↑ Back to top | Tablatures and chords are parodies/interpretations of the original songs. You may use it for private study, scholarship, research or language learning purposes only