>
 >
Ain't Life Grand 1

Ain't Life Grand 1 Guitar Tabs

Slashs Snakepit - Ain't Life Grand 1 chords, tabs, tablatures, lyrics

Guitar lessons | Add/correct | Request | Top 50 tabs Artists:  A B C D E F G H I J K L M N O P Q R S T U V W X Y Z 0-9

Ain't Life Grand 1 Guitar Tabs – Slashs Snakepit

CD, Sheet music, Poster

Do you like Ain't Life Grand 1? Share with your friends now
Bass TabsTabsTabs v2
Tabs "Ain't Life Grand" 
zuruck 

+-----------------------------------------------------------------------------------+

"Ainít Life Grand"
(As recorded by Slashís Snakepit on "Ainít Life Grand")

Tuning: Eb; Ab; Db; Gb; Bb; Eb

Intro

Guitar 1 (Slash)
|----------------------------------------------------------------|
|----------------------------------------------------------------|
|---------------------------------------------5--5-----5---------|
|---------------------------1-^(1/4)---3/sl-5-------4-----3--1---|
|-X--------------1-H-2-H-3----------3----------------------------|
|-X---15\sl---3--------------------------------------------------|

|----------------------------------------------------------------|
|----------------------------------------------------------------|
|---------------------------------5--5-----5----------8-~~-\sl---|
|---------------1-^(1/4)---3/sl-5-------4-----3--1----8-~~-\sl---|
|----1-H-2-H-3----------3----------------------------------------|
|-3--------------------------------------------------------------|

|----------------------------------------------------------------|
|----------------------------------------------------------------|
|----------------------5--5-----5--------------------------------|
|----1-^(1/4)---3/sl-5-------4-----3--1--------------------------|
|-3----------3---------------------------------------------------|
|----------------------------------------------------------------|

|----------------------------------------------------------------|
|----------------------------------------------------------------|
|---------------------------------5------------------------------|
|---------------1-^(1/4)---3/sl-5----4--X--3--X--1---------------|
|----1-H-2-H-3----------3---------------------------3--5---------|
|-3--------------------------------------------------------------|

|----------------------------------------------------------------|
|----------------------------------------------------------------|
|----------------------------------------------------------------|
|-5--5--5--5--5--5--5--5-----------------------------------------|
|-5--5--5--5--5--5--5--5-----------------------------------------|
|-3--3--3--3--3--3--3--3-----------------------------------------|


Guitar 2 (Ryan Roxie)

|------------8---------------8-----------------------------------|
|-------11-----11-------11-----11--------------------------------|
|----------8---------------8-----------X--11--X--10--------------|
|----10-----------10-10-----------10---X--11--X--10--------------|
|----------------------------------------------------------------|
|----------------------------------------------------------------|

|------------8---------------8-----------------------------------|
|-------11-----11-------11-----11--------------------------------|
|----------8---------------8-----------8~~\sl--------------------|
|----10-----------10-10-----------10---8~~\sl--------------------|
|----------------------------------------------------------------|
|----------------------------------------------------------------|

|---------8---------------8--------------------------------------|
|----11-----11-------11-----11-----------------------------------|
|-------8---------------8---------X-11-X-10-------10-^(1/4)-8\sl-|
|-10-----------10-10-----------10-X-11-X-10-sl/10----------------|
|----------------------------------------------------------------|
|----------------------------------------------------------------|


Interlude 1

Guitar 1 (Slash)
|---------------------------------------------------------------------------|
|---------------------------------------------------------------------------|
|---------------------------------------------------------------------------|
|---1-^(1/4)-1-^(1/4)---------------------------------4-4-3-1-----3-3-1-----|
|-3---------------------------1-^(1/4)-1-^(1/4)-------------------------3-1-|
|---------------------1-2-3-3-------------------2-3-4---------3-3-----------|

|---------------------------------------------------------------------------|
|---------------------------------------------------------------------------|
|---------------------------------------------------------------------------|
|---1-^(1/4)-1-^(1/4)---------------------------------4-4-3-1-----3-3-1-----|
|-3---------------------------1-^(1/4)-1-^(1/4)-------------------------3-1-|
|---------------------1-2-3-3-------------------2-3-4---------3-3-----------|

Guitar 2 (Ryan Roxie)

|-----------------------------------------------------|
|-----------------------11-10-8-----------------------|
|-8-8-10-7-8-8-P-7-7-8--11-10-8----10-10-8------------|
|-8-8----9---------9-10------------10-10-8-10-8-10\sl-|
|-------------------------------10--------------------|
|-----------------------------------------------------|

|-----------------------------------------------------|
|-----------------------11-10-8-----------------------|
|-8-8-10-7-8-8-P-7-7-8--11-10-8----10-10-8------------|
|-8-8----9---------9-10------------10-10-8-10-8-10\sl-|
|-------------------------------10--------------------|
|-----------------------------------------------------|


Verse 1

Guitar 1 (Slash)
|----------------------------------------------------------------------------------------|
|----------------------------------------------------------------------------------------|
|----------------------------------------------------------------------------------------|
|-5--6--6-P-5--------------------------------8--10--10-P-8-------------------------------|
|-3--3--3---3--5-/sl-6--8--8-P-6----------6--6--6---6----6--7-/sl--8--10--10-P-8---9-8-6-|
|--------------3-/sl-4--4--4---4--6-/sl-8-------------------5-/sl--6--6---6----6---------|

|----------------------------------------------------------------------------------------|
|----------------------------------------------------------------------------------------|
|----------------------------------------------------------------------------------------|
|-5--6--6-P-5--------------------------------8--10--10-P-8-------------------------------|
|-3--3--3---3--5-/sl-6--8--8-P-6----------6--6--6---6----6--7-/sl--8--10--10-P-8---9-8-6-|
|--------------3-/sl-4--4--4---4--6-/sl-8-------------------5-/sl--6--6---6----6---------|

|---------------------------------------------------------------------------------------------|
|---------------------------------------------------------------------------------------------|
|---------------------------------------------------------------------------------------------|
|----------------------------8--8--10--10-P-8--10--10--10--10--12--12--12--12--12--12--12--12-|
|-6--8--8-P-6-------------6--6--6--6---6----6--8---8---8---8---10--10--10--10--10--10--10--10-|
|-4--4--4---4--4--6-/sl-8---------------------------------------------------------------------|

Guitar 2 (Ryan Roxie)

|------------------------------------|
|---------------11\sl----------------|
|-8-\sl--12\sl--12\sl--11-10-8-------|
|-10\sl--10\sl-----------------10\sl-|
|------------------------------------|
|------------------------------------|

|------------------------------------|
|---------------11\sl----------------|
|-8-\sl--12\sl--12\sl--11-10-8-------|
|-10\sl--10\sl-----------------10\sl-|
|------------------------------------|
|------------------------------------|

                                     _let ring__    _let ring__    _let ring__
|-----------------------------------|-5---------|--|-7---------|--|-7---------|-|
|----------4-4/sl-6-4---------------------4--------------6--------------6-------|
|-1-3/sl-5------------------------------------5--------------7--------------7---|
|---------------------1-3/sl-5-----3--------------5-----------------------------|
|-------------------------------------------------------------------------------|
|-------------------------------------------------------------------------------|


Interlude 2

Guitar 1 (Slash)
|---------------------------------------------------------------------------|
|---------------------------------------------------------------------------|
|---------------------------------------------------------------------------|
|---1-^(1/4)-1-^(1/4)---------------------------------4-4-3-1-----3-3-1-----|
|-3---------------------------1-^(1/4)-1-^(1/4)-------------------------3-1-|
|---------------------1-2-3-3-------------------2-3-4---------3-3-----------|

|---------------------------------------------------------------------------|
|---------------------------------------------------------------------------|
|---------------------------------------------------------------------------|
|---1-^(1/4)-1-^(1/4)---------------------------------4-4-3-1-----3-3-1-----|
|-3---------------------------1-^(1/4)-1-^(1/4)-------------------------3-1-|
|---------------------1-2-3-3-------------------2-3-4---------3-3-----------|

Guitar 2 (Ryan Roxie)

|-----------------------------------------------------|
|-----------------------11-10-8-----------------------|
|-8-8-10-7-8-8-P-7-7-8--11-10-8----10-10-8------------|
|-8-8----9---------9-10------------10-10-8-10-8-10\sl-|
|-------------------------------10--------------------|
|-----------------------------------------------------|

|-----------------------------------------------------|
|-----------------------11-10-8-----------------------|
|-8-8-10-7-8-8-P-7-7-8--11-10-8----10-10-8------------|
|-8-8----9---------9-10------------10-10-8-10-8-10\sl-|
|-------------------------------10--------------------|
|-----------------------------------------------------|


Verse 2

Guitar 1 (Slash)
|----------------------------------------------------------------------------------------|
|----------------------------------------------------------------------------------------|
|----------------------------------------------------------------------------------------|
|-5--6--6-P-5--------------------------------8--10--10-P-8-------------------------------|
|-3--3--3---3--5-/sl-6--8--8-P-6----------6--6--6---6----6--7-/sl--8--10--10-P-8---9-8-6-|
|--------------3-/sl-4--4--4---4--6-/sl-8-------------------5-/sl--6--6---6----6---------|

|----------------------------------------------------------------------------------------|
|----------------------------------------------------------------------------------------|
|----------------------------------------------------------------------------------------|
|-5--6--6-P-5--------------------------------8--10--10-P-8-------------------------------|
|-3--3--3---3--5-/sl-6--8--8-P-6----------6--6--6---6----6--7-/sl--8--10--10-P-8---9-8-6-|
|--------------3-/sl-4--4--4---4--6-/sl-8-------------------5-/sl--6--6---6----6---------|

|---------------------------------------------------------------------------------------------|
|---------------------------------------------------------------------------------------------|
|---------------------------------------------------------------------------------------------|
|----------------------------8--8--10--10-P-8--10--10--10--10--12--12--12--12--12--12--12--12-|
|-6--8--8-P-6-------------6--6--6--6---6----6--8---8---8---8---10--10--10--10--10--10--10--10-|
|-4--4--4---4--4--6-/sl-8---------------------------------------------------------------------|

Guitar 2 (Ryan Roxie)

|------------------------------------|
|---------------11\sl----------------|
|-8-\sl--12\sl--12\sl--11-10-8-------|
|-10\sl--10\sl-----------------10\sl-|
|------------------------------------|
|------------------------------------|

|------------------------------------|
|---------------11\sl----------------|
|-8-\sl--12\sl--12\sl--11-10-8-------|
|-10\sl--10\sl-----------------10\sl-|
|------------------------------------|
|------------------------------------|

                                     _let ring__    _let ring__    _let ring__
|-----------------------------------|-5---------|--|-7---------|--|-7---------|-|
|----------4-4/sl-6-4---------------------4--------------6--------------6-------|
|-1-3/sl-5------------------------------------5--------------7--------------7---|
|---------------------1-3/sl-5-----3--------------5-----------------------------|
|-------------------------------------------------------------------------------|
|-------------------------------------------------------------------------------|

Chorus 1

Guitars 1 & 2 (Slash & Ryan Roxie)

|------------------------------------------------|
|------------------------------------------------|
|------------------------------------------------|
|------------------------------------------------|
|----3--4--5--6--------------5--6--7--8--6--5----|
|-4--------------3--4--5--6--------------------6-|

|------------------------------------------------|
|------------------------------------------------|
|------------------------------------------------|
|------------------------------------------------|
|----3--4--5--6--------------5--6--7--8--6--5----|
|-4--------------3--4--5--6--------------------6-|

|-----------------------------------------------------------------------------------|
|-----------------------------------------------------------------------------------|
|-----------------------------------------------------------------------------------|
|----------------------------------------10-10-10-10--12--12--12--12-12--12--12--12-|
|----3--4--5--6--------------5--6--7--8--8--8--8--8---10--10--10--10-10--10--10--10-|
|-4--------------3--4--5--6---------------------------------------------------------|


Solo

Guitar 1 (Slash)

|----__HOLD__--------------__--------__-------------------------8--------------------------------|
|---/--------\------------/----8----/----8----8-----------------11-^(full)--11--8-H-11-8\sl------|
|-10--10--10--P-8----8--10---10---10--------10--8------8-----------------------------------------|
|-----------------10-------------------------------10----10-P-8----------------------------------|
|------------------------------------------------------------------------------------------------|
|------------------------------------------------------------------------------------------------|

                                                                             __
      __   __       __                 __    __                             /
|----/----/---15---|--\---------------/-----/---15----15------------------18----18--15-H-18------|
|--18---18--------18---P-16----16-H-18----18-------18----16----16--------------------------------|
|---------------------------17------------------------------17----17-P-15------------------------|
|------------------------------------------------------------------------------------------------|
|------------------------------------------------------------------------------------------------|
|------------------------------------------------------------------------------------------------|

           ______
     __   /          __          ______          __    __    _________________         _
|---/---18-18-18----|--\--------/-18---\--------/-----/-----/-18-18----18-18--\---18--|-\--------|
|-18---------------18-----16--18-----18---16--18----18----18--------18-------18------18--16------|
|------------------------------------------------------------------------------------------------|
|------------------------------------------------------------------------------------------------|
|------------------------------------------------------------------------------------------------|
|------------------------------------------------------------------------------------------------|



|------------------------------------------------------------------------------------------------|
|-18-P-16\sl-15-16-P-15\sl-13-15-P-13\sl-11-13-P-11\sl-8-11-P-8----------------------------13\sl-|
|---------------------------------------------------------------10-10-^(1/2)-8-10-^(1/2)-8-------|
|------------------------------------------------------------------------------------------------|
|------------------------------------------------------------------------------------------------|
|------------------------------------------------------------------------------------------------|

Guitar 2 (Ryan Roxie)
|----------------------------------------------------------------------------------------|
|----------------------------------------------------------------------------------------|
|----------------------------------------------------------------------------------------|
|-5--6--6-P-5--------------------------------8--10--10-P-8-------------------------------|
|-3--3--3---3--5-/sl-6--8--8-P-6----------6--6--6---6----6--7-/sl--8--10--10-P-8---9-8-6-|
|--------------3-/sl-4--4--4---4--6-/sl-8-------------------5-/sl--6--6---6----6---------|

|----------------------------------------------------------------------------------------|
|----------------------------------------------------------------------------------------|
|----------------------------------------------------------------------------------------|
|-5--6--6-P-5--------------------------------8--10--10-P-8-------------------------------|
|-3--3--3---3--5-/sl-6--8--8-P-6----------6--6--6---6----6--7-/sl--8--10--10-P-8---9-8-6-|
|--------------3-/sl-4--4--4---4--6-/sl-8-------------------5-/sl--6--6---6----6---------|

|---------------------------------------------------------------------------------------------|
|---------------------------------------------------------------------------------------------|
|---------------------------------------------------------------------------------------------|
|----------------------------8--8--10--10-P-8--10--10--10--10--12--12--12--12--12--12--12--12-|
|-6--8--8-P-6-------------6--6--6--6---6----6--8---8---8---8---10--10--10--10--10--10--10--10-|
|-4--4--4---4--4--6-/sl-8---------------------------------------------------------------------|


Chorus 2

Guitars 1 & 2 (Slash & Ryan Roxie)

|------------------------------------------------|
|------------------------------------------------|
|------------------------------------------------|
|------------------------------------------------|
|----3--4--5--6--------------5--6--7--8--6--5----|
|-4--------------3--4--5--6--------------------6-|

|------------------------------------------------|
|------------------------------------------------|
|------------------------------------------------|
|------------------------------------------------|
|----3--4--5--6--------------5--6--7--8--6--5----|
|-4--------------3--4--5--6--------------------6-|

|------------------------------------------------|
|------------------------------------------------|
|------------------------------------------------|
|------------------------------------------------|
|----3--4--5--6--------------5--6--7--8--6--5----|
|-4--------------3--4--5--6--------------------6-|

|-----------------------------------------------------------------------------------|
|-----------------------------------------------------------------------------------|
|-----------------------------------------------------------------------------------|
|----------------------------------------10-10-10-10--12--12--12--12-12--12--12--12-|
|----3--4--5--6--------------5--6--7--8--8--8--8--8---10--10--10--10-10--10--10--10-|
|-4--------------3--4--5--6---------------------------------------------------------|


Interlude 3

Guitar 1 (Slash)
|---------------------------------------------------------------------------|
|---------------------------------------------------------------------------|
|---------------------------------------------------------------------------|
|---1-^(1/4)-1-^(1/4)---------------------------------4-4-3-1-----3-3-1-----|
|-3---------------------------1-^(1/4)-1-^(1/4)-------------------------3-1-|
|---------------------1-2-3-3-------------------2-3-4---------3-3-----------|

|---------------------------------------------------------------------------|
|---------------------------------------------------------------------------|
|---------------------------------------------------------------------------|
|---1-^(1/4)-1-^(1/4)---------------------------------4-4-3-1-----3-3-1-----|
|-3---------------------------1-^(1/4)-1-^(1/4)-------------------------3-1-|
|---------------------1-2-3-3-------------------2-3-4---------3-3-----------|

|---------------------------------------------------------------------------|
|---------------------------------------------------------------------------|
|---------------------------------------------------------------------------|
|---1-^(1/4)-1-^(1/4)---------------------------------4-4-3-1-----3-3-1-----|
|-3---------------------------1-^(1/4)-1-^(1/4)-------------------------3-1-|
|---------------------1-2-3-3-------------------2-3-4---------3-3-----------|

|-------------------------------------------------------------------------------|
|-------------------------------------------------------------------------------|
|-------------------------------------------------------------------------------|
|---1-^(1/4)-1-^(1/4)---------------------------------4-4-3-1-----3-3-1---------|
|-3---------------------------1-^(1/4)-1-^(1/4)-------------------------3-1-3~~-|
|---------------------1-2-3-3-------------------2-3-4---------3-3---------------|

Outro

Guitar 1 (Slash)
|----------------------------------------------------------------|
|----------------------------------------------------------------|
|----------------------5--5-----5--------------------------------|
|----1-^(1/4)---3/sl-5-------4-----3--1--------------------------|
|-3----------3---------------------------------------------------|
|----------------------------------------------------------------|

|----------------------------------------------------------------|
|----------------------------------------------------------------|
|---------------------------------5--5-----5----------8-~~-\sl---|
|---------------1-^(1/4)---3/sl-5-------4-----3--1----8-~~-\sl---|
|----1-H-2-H-3----------3----------------------------------------|
|-3--------------------------------------------------------------|

|----------------------------------------------------------------|
|----------------------------------------------------------------|
|----------------------5--5-----5--------------------------------|
|----1-^(1/4)---3/sl-5-------4-----3--1--------------------------|
|-3----------3---------------------------------------------------|
|----------------------------------------------------------------|

|----------------------------------------------------------------|
|----------------------------------------------------------------|
|----------------------------------------------------------------|
|---------------1-^(1/4)---3-^(1/4)-3-3-^(1/4)--1----------------|
|----1-H-2-H-3----------3--------------------------3~~~----------|
|-3--------------------------------------------------------------|

Guitar 2 (Ryan Roxie)

|------------8---------------8-----------------------------------|
|-------11-----11-------11-----11--------------------------------|
|----------8---------------8-----------X--11--X--10--------------|
|----10-----------10-10-----------10---X--11--X--10--------------|
|----------------------------------------------------------------|
|----------------------------------------------------------------|

|------------8---------------8-----------------------------------|
|-------11-----11-------11-----11--------------------------------|
|----------8---------------8-----------8~~\sl--------------------|
|----10-----------10-10-----------10---8~~\sl--------------------|
|----------------------------------------------------------------|
|----------------------------------------------------------------|

|---------8---------------8--------------------------------------|
|----11-----11-------11-----11-----------------------------------|
|-------8---------------8---------X-11-X-10-------10-^(1/4)-8\sl-|
|-10-----------10-10-----------10-X-11-X-10-sl/10----------------|
|----------------------------------------------------------------|
|----------------------------------------------------------------|

 __
|  \   : pre-bend and release
^(x/x) : bend and release
X      : muffled strings
~      : vibrato
sl/ \sl: slide (up/down)
H      : hammer-on
P      : pull-off

 





Comments


Popular Slashs Snakepit tabs & chords
Been There Lately Bass Tabs
Just Like Anything Bass Tabs
Shine Bass Tabs
Ain't Life Grand Tabs
Back And Forth Again 4 Tabs
Be The Ball 1 Tabs
Beggars And Hangers On Intro 2 Tabs
Give In To Me Tabs
Neither Can I Tabs
Take It Away Tabs


Song lyrics



↑ Back to top | Tablatures and chords are parodies/interpretations of the original songs. You may use it for private study, scholarship, research or language learning purposes only
© 2014 AZChords.com Contact us | Privacy policy | DMCA | Add/correct tabs | Request tabs | Top 50 tabs