>
 >
Gotten

Gotten Guitar Tabs

Slash - Gotten chords, tabs, tablatures, lyrics

Guitar lessons | Add/correct | Request | Top 50 tabs Artists:  A B C D E F G H I J K L M N O P Q R S T U V W X Y Z 0-9

Gotten Guitar Tabs – Slash

CD, Sheet music, Poster

Do you like Gotten? Share with your friends now
Bass TabsBass Tabs v2ChordsChords v2Chords v3TabsTabs v2Tabs v3Tabs v4Tabs v5Tabs v6Tabs v7Ukulele


I don't know if the whole tab is correct, but it sounds good!

Tuning: Standard

Intro:

e|-----------------------------------------------|
B|----------------------7------------------------|
G|------9-----8-h-9--------9--------8-h-9-----9--|
D|---------9---------9-----------9---------9-----|
A|-----------------------------------------------|
E|--9--------------------------------------------|

e|-----------------------------------------------|
B|----------------------7------------------------|
G|------9-----8-h-9--------9--------8-h-9-----9--|
D|---------9---------9-----------9---------9-----|
A|--0--------------------------------------------|
E|-----------------------------------------------|

e|-----------------------------------------------|
B|----------------------7------------------------|
G|------9-----8-h-9--------9--------8-h-9-----9--|
D|---------9---------9-----------9---------9-----|
A|-----------------------------------------------|
E|--0--------------------------------------------|

e|--------------0-----------|
B|--------------------------|
G|--------8-----------8-----|
D|-----9-----9-----9-----9--|
A|--------------------------|
E|--7-----------------------|

e|------------------------------|
B|----------------7-------------|
G|-------------9-----9----------|
D|---------10-----------10------|
A|-----10-------------------10--|
E|--8---------------------------|


Verse (= Intro + this part):

e|-----------------------------------------------|
B|----------------------7------------------------|
G|------9-----8-h-9--------9--------8-h-9-----9--|
D|---------9---------9-----------9---------9-----|
A|-----------------------------------------------|
E|--9--------------------------------------------|

e|-----------------------------------------------|
B|----------------------7------------------------|
G|------9-----8-h-9--------9--------8-h-9-----9--|
D|---------9---------9-----------9---------9-----|
A|--0--------------------------------------------|
E|-----------------------------------------------|

e|-----------------------------------------------|
B|----------------------7------------------------|
G|------9-----8-h-9--------9--------8-h-9-----9--|
D|---------9---------9-----------9---------9-----|
A|-----------------------------------------------|
E|--0--------------------------------------------|

e|--------------0-----------|--------------0-----------|
B|--------------------------|--------------------------|
G|--------8-----------8-----|--------6-----------6-----|
D|-----9-----9-----9-----9--|-----7-----7-----7-----7--|
A|--------------------------|--------------------------|
E|--7-----------------------|--5-----------------------|


Pre-chorus:

e|----------------------------------------------------|
B|-----------------5---------5-h-7--------7--5--------|
G|--------------4---------4---------4-----------4-----|
D|-------4-h-6-------------------------6-----------6--|
A|----------------------------------------------------|
E|--0-------------------------------------------------|

e|--------------0-----------|--------------0-----------|
B|--------------------------|--------------------------|
G|--------8-----------8-----|--------6-----------6-----|
D|-----9-----9-----9-----9--|-----7-----7-----7-----7--|
A|--------------------------|--------------------------|
E|--7-----------------------|--5-----------------------|

e|---------------------------|--------------|
B|----------------5----------|--------------|
G|-------6--4-----------4----|--------4-----|
D|--------------6---------6--|-----4-----4--|
A|--4------------------------|--2-----------|
E|---------------------------|--------------|

e|------------------------0-----------|--0-----------|
B|--------------0-h-2-----------2-----|-----0-----0--|
G|--------2------------2-----------2--|--------2-----|
D|-----2-----2------------------------|--------------|
A|--0---------------------------------|--------------|
E|------------------------------------|--------------|


Chorus:

--0--  --7--  --9---  --5--
--0--  --7--  --9---  --5--
--1--  --8--  --9---  --6--
--2--  --9--  --11--  --7--
--2--  --9--  --11--  --7--
--0--  --7--  --9---  --5--

                               or Am
--0--  --7--  --9---  --5--  -----
--0--  --7--  --9---  --5--  --5--
--1--  --8--  --9---  --6--  --5--
--2--  --9--  --11--  --7--  --5--
--2--  --9--  --11--  --7--  -----
--0--  --7--  --9---  --5--  -----


1st solo:

e|------------------------------------------------------------------------|
B|------------------------------------------------------------------------|
G|---------9--11b------11--9------11------9-h-11-p-9------------9---------|
D|--9-h-11--------------------11------11-----------------9-h-11---9-h-11--|
A|------------------------------------------------------------------------|
E|------------------------------------------------------------------------|

e|---------------------------------------------------------------------|
B|------------------12-------------------------------------------------|
G|------9--11-/-13------------13-\-11---9---11-------9-h-11-p-9--9--9--|
D|--11-------------------------------------------11--------------------|
A|---------------------------------------------------------------------|
E|---------------------------------------------------------------------|

e|--------------------------------------------|
B|--------------------------------------------|
G|-----9--11--pbr11--pbr11---p-9------9-h-11--|
D|--11---------------------------11-----------|
A|--------------------------------------------|
E|--------------------------------------------|

e|--------------|------------------|
B|--------------|------------------|
G|-----9-h-11b--|------9-h-11------|
D|--11----------|--11----------11--|
A|--------------|------------------|
E|--------------|------------------|

+ Verse

Pre-chorus:

e|----------------------------------------------|
B|----------------------5--------5-----------5--|
G|----------------4--------4--------4-----4-----|
D|-------4-h-6-------6--------6--------6--------|
A|----------------------------------------------|
E|--0-----------0-------------------------------|

e|--------------0-----------|--------------0-----------|
B|--------------------------|--------------------------|
G|--------8-----------8-----|--------6-----------6-----|
D|-----9-----9-----9-----9--|-----7-----7-----7-----7--|
A|--------------------------|--------------------------|
E|--7-----------------------|--5-----------------------|

e|---------------------------|--------------|
B|----------------5----------|--------------|
G|-------6--4-----------4----|--------4-----|
D|--------------6---------6--|-----4-----4--|
A|--4------------------------|--2-----------|
E|---------------------------|--------------|

e|------------------------0-----------|--0-----------|
B|--------------0-h-2-----------2-----|-----0-----0--|
G|--------2------------2-----------2--|--------2-----|
D|-----2-----2------------------------|--------------|
A|--0---------------------------------|--------------|
E|------------------------------------|--------------|


+ Chorus

Bridge:

e|---------------------|
B|--2----2----2----2---|
G|--4b---4b---4b---4b--|
D|---------------------|
A|---------------------|
E|---------------------|

e|---------------------------------------|
B|--7-----7-----7----5-----5----5----5---|
G|--9b-pbr9--pbr9----7b----7b---7b---7b--|
D|---------------------------------------|  x2
A|---------------------------------------|
E|---------------------------------------|

e|--------------------------------------------x-x-x-2--|
B|--2-----------2---2---(2)-------------------x-x-x-2--|
G|--4br--3-h-4--4b--4b------pbr3--pbr3--------x-x-x----|
D|--------------------------------------4--------------|
A|-----------------------------------------------------|
E|-----------------------------------------------------|

e|---------------------|
B|--2----2----2----2---|
G|--4b---4b---4b---4b--|
D|---------------------|
A|---------------------|
E|---------------------|

e|---------------------------------------|
B|--7-----7-----7----5-----5----5----5---|
G|--9b-pbr9--pbr9----7b----7b---7b---7b--|
D|---------------------------------------|  x2
A|---------------------------------------|
E|---------------------------------------|

e|-------------------------------------------6--------|
B|--9------9-----9----7-----7------7------7--------5--|
G|--10b-pbr10-pbr10---9b------9b-----9b---------9-----|
D|----------------------------------------------------|
A|----------------------------------------------------|
E|----------------------------------------------------|

Solo:

e|---------------------9-----9-----9-------9------------|
B|--9--pbr9-p-7---9b-----9b----9b----9b------9b-9b-9br--|
G|------------------------------------------------------|
D|------------------------------------------------------|
A|------------------------------------------------------|
E|------------------------------------------------------|

e|-----------------------------|
B|---7-h-9--(9)b---9b--9b--9b--|
G|-----------------------------|
D|-----------------------------|
A|-----------------------------|
E|-----------------------------|

e|---------------------------------------------------------|
B|-------------------------------17-------------17---------|
G|-------14--16--pbr16-p-14----------16b------------pbr16--|
D|--/16----------------------16----------------------------|
A|---------------------------------------------------------|
E|---------------------------------------------------------|

e|-------------------------------------------------|
B|-------------------------------------------------|
G|--14--pbr16--14--16--pbr15-----------------------|
D|----------------------------16-------------------|
A|--------------------------------16--14-\-13------|
E|---------------------------------------------14--|

e|---------------------------------|
B|---------------------------------|
G|----------------------------16b--|
D|--------------------14-----------|
A|--13--14-/-16-----------16-------|
E|---------------------------------|


+ Second part of the verse
+ Chorus


Solo (at the end):
e|-------------------------------------|
B|------------12------12-------12------|
G|--11-/-13------13-------13-------13--|
D|-------------------------------------|
A|-------------------------------------|
E|-------------------------------------|

e|-------------------------------------------------|
B|--12---------------------------12--------12------|
G|------13-\-11--9------9--11--------11--------11--|
D|------------------11-----------------------------|
A|-------------------------------------------------|
E|-------------------------------------------------|

e|--------------------------------------|
B|--12----(12)----------12-----12--12---|
G|--11b----11br----9----11b--------11b--|
D|--------------------------------------|
A|--------------------------------------|
E|--------------------------------------|

e|----------9-------------------------|
B|-------9-----12---------------------|
G|--11b------------pbr11-p-9---11--9--|
D|------------------------------------|
A|------------------------------------|
E|------------------------------------|


************************************

| /   slide up
| \   slide down
| h   hammer-on
| p   pull-off
| x   Mute note
| b   Bend
| pb  Pre-bend
| br  Bend release
| pbr Pre-bend release
| brb Bend release bend

************************************





Comments


Popular Slash tabs & chords
Beautiful Dangerous 2 Bass Tabs
Promise 3 Chords
Anastasia Intro Tabs
By The Sword 3 Tabs
Far And Away Tabs
Ghost Tabs
Nothing To Say 1 Tabs
Were All Gonna Die Intro 1 Tabs
Youre A Lie Tabs
Youre A Lie 1 Tabs


Song lyrics



↑ Back to top | Tablatures and chords are parodies/interpretations of the original songs. You may use it for private study, scholarship, research or language learning purposes only
© 2014 AZChords.com Contact us | Privacy policy | DMCA | Add/correct tabs | Request tabs | Top 50 tabs