>
 >
Godfather Theme

Godfather Theme Guitar Tabs

Slash - Godfather Theme chords, tabs, tablatures, lyrics

Guitar lessons | Add/correct | Request | Top 50 tabs Artists:  A B C D E F G H I J K L M N O P Q R S T U V W X Y Z 0-9

Godfather Theme Guitar Tabs – Slash

CD, Sheet music, Poster

Do you like Godfather Theme? Share with your friends now
TabsTabs v2Tabs v3Tabs v4Tabs v5Tabs v6Tabs v7Tabs v8Tabs v9
INTRO:

|----------------------------|
|----------------------------|
|----------------------------|
|----------------------------|
|----------7^8r7-------------|
|-----7--9--------9p7h9~~~---|

|-----------------------9-----12--11---9h11p9----------------------------|
|---------------------9-----------------------12^14r12---9---------------|
|-------------------9----------------------------------------------------|
|--------------9h11------------------------------------------------------|
|-------7-9/11-----------------------------------------------------------|
|---7h9------------------------------------------------------------------|

|---9------------------------9--------------------------------------|
|-----12p9--12^14r12p9---------12p9--12^14r12p9---------------------|
|----------------------11^13----------------------------------------|[x10]
|-------------------------------------------------------------------|
|-------------------------------------------------------------------|
|-------------------------------------------------------------------|

|------12----11h12p11-9h11p9----9----------------------------------------|
|---12----12-----------------12---12-10h12p10--9h10p10-------------------|
|-----------------------------------------------12-11h12p11--9-11-9---9--|
|-------------------------------------------------------------------12-11|
|------------------------------------------------------------------------|
|------------------------------------------------------------------------|

|------------------------------------------------------------------------|
|-15---14-15-16--15-15---------15---14-15-16--15-15----------------------|
|----------------------15---------------------------14-------------------|
|------------------------------------------------------------------------|
|------------------------------------------------------------------------|
|------------------------------------------------------------------------|
                                                 
|------------------------------------------------------------------------|
|-15---14-15-18--15-14-15^17r15---14^16r14----------14^16r14-------------|
|------------------------------------------14^16r14----------14----------|
|------------------------------------------------------------------------|
|------------------------------------------------------------------------|
|------------------------------------------------------------------------|

VERSE:

|----10-13-12-10-13-10-12-10---------------------------------------------|
|-10-------------------------11-13-10------------------------------------|
|------------------------------------------------------------------------|
|------------------------------------------------------------------------|
|------------------------------------------------------------------------|
|------------------------------------------------------------------------|
                             
|----10-13-12-10-13-10-12-10---------------------------------------------|
|-10-------------------------/10-9-8-------------------------------------|
|------------------------------------------------------------------------|
|------------------------------------------------------------------------|
|------------------------------------------------------------------------|
|------------------------------------------------------------------------|
                     
|-------------------6-9-9------------------------------------------------|
|----6-10-10^13---/8---------------13-11-10-13-11-10-10------------------|
|-/7---------------------------10----------------------------------------|
|--------------------------/12---------------------------11-12-----------|
|------------------------------------------------------------------------|
|------------------------------------------------------------------------|
              
|-10-10-9-8-10/12-10-----------------------------------------10----------|
|--------------------11-10----10-13-10-8----8-11-9-10-----10-------------|
|------------------------------------------------------------------------|
|------------------------------------------------------------------------|
|------------------------------------------------------------------------|
|------------------------------------------------------------------------|
                                
|-13^12^10--13^12^10--13^12^10-------------------------------------------|
|------------------------------12^-12^-12^-12-10-12-10-9-10-12-10-9------|
|------------------------------------------------------------------------|
|------------------------------------------------------------------------|
|------------------------------------------------------------------------|
|------------------------------------------------------------------------|

|-13-12-10-9-10-12-10-9----9---------------------------------------------|
|-----------------------10---10-12-10-9----9----12-----------------------|
|---------------------------------------11---11----11-9----9-------------|
|-------------------------------------------------------11---11----------|
|------------------------------------------------------------------------|
|------------------------------------------------------------------------|

|-----------------------------9-10---------------------------------------|
|--------13-11-10-13-11-10-10--------------------------------------------|
|-----10-----------------------------------------------------------------|
|-/12--------------------------------------------------------------------|
|------------------------------------------------------------------------|
|------------------------------------------------------------------------|





Comments


Popular Slash tabs & chords
Watch This Bass Tabs
Gotten 1 Chords
Beautiful Dangerous 1 Tabs
By The Sword Intro Tabs
Carolina Tabs
Doctor Alibi 1 Tabs
Ghost Intro Tabs
Watch This Intro Tabs
Watch This Intro 1 Tabs
Promise Ukulele


Song lyrics



↑ Back to top | Tablatures and chords are parodies/interpretations of the original songs. You may use it for private study, scholarship, research or language learning purposes only
© 2014 AZChords.com Contact us | Privacy policy | DMCA | Add/correct tabs | Request tabs | Top 50 tabs