>
 >
Ghost

Ghost Guitar Tabs

Slash - Ghost chords, tabs, tablatures, lyrics

Guitar lessons | Add/correct | Request | Top 50 tabs Artists:  A B C D E F G H I J K L M N O P Q R S T U V W X Y Z 0-9

Ghost Guitar Tabs – Slash

CD, Sheet music, Poster

Do you like Ghost? Share with your friends now
Bass TabsBass Tabs v2TabsTabs v2Tabs v3
-------------------------------------------------------------------------------         
Ghost (feat. Ian Astbury & Izzy Stradlin) - Slash
-------------------------------------------------------------------------------
Tuning: Standard (E,A,D,G,B,e)

Thanks for learning and I hope you'll enjoy it!
-------------------------------------------------------------------------------

INTRO:

Drum Break

Lead Guitar:
e|----------------------------------|
B|-10----12----10----12----10p9-----|
G|-----11----11----11----11-------9-| x10
D|---9-----9-----9-----9--------9---|
A|----------------------------------|
E|----------------------------------|

Rhythm Guitar: (on the third measure)
e|--------------------------------------------------------------------| |
B|--------------------------------------------------------------------| |
G|-4------------------------------------------------------------------| |
D|-4----------------------------------2-------------------------------| |
A|-2----------------------------------2-------------------------------| |
E|------------------------------------0-------------------------------| |
                                                                        | x2
e|--------------------------------------------------------------------| |
B|--------------------------------------------------------------------| |
G|-2------------------------------------------------------------------| |
D|-2----------------------------------2-------------------------------| |
A|-0----------------------------------2-------------------------------| |
E|------------------------------------0-------------------------------| |

Third Guitar same as the Rhythm Guitar (on the seventh measure)

Lead Guitar:
e|--------------------------------------------------------------------|
B|-10----12----10----12----10----12----10----12----10----12----12-12\-|
G|-----11----11----11----11----11----11----11----11----11----11-------|
D|---9-----9-----9-----9-----9-----9-----9-----9-----9-----9----------|
A|--------------------------------------------------------------------|
E|--------------------------------------------------------------------|

Rhythm and Third Guitar:
e|---------------------------|
B|---------------------------|
G|-2h4-4-4-x-x-2h4-x-x-4---4-| x2
D|-2h4-4-4-x-x-2h4-x-x-4---4-|
A|-2---2-2-x-x-2---x-x-2---2-|
E|---------------------------|


VERSE:

Third Guitar:
e|--------|                                |
B|--------|                                |
G|--------|                                |
D|-2------|                                |
A|-2------|                                |
E|-0------|                                |
                                           |
Rhythm Guitar:                             |
e|---------------------------|             |
B|-5-5-5-5-x-x-5---x-x-5---5-|             |
G|-4-4-4-4-x-x-4---x-x-4---4-| x4          |   x2
D|-2-2-2-2-x-x-2---x-x-2---2-|             |
A|---------------------------|             |
E|---------------------------|             |
                                           |
Rhythm and Third Guitar:                   |
e|-------------------------------|         |
B|-------------------------------|         |
G|-2h4-4-4-x-x-2h4-4-4-x-x-2-----| x2      |
D|-2h4-4-4-x-x-2h4-4-4-x-x-2---2-|         |
A|-2---2-2-x-x-2---2-2-x-x-0---2-|         |
E|---------------------------4-0-|         |

BRIDGE:

Rhythm and Third Guitar:
e|---------------3---------------------------5-------------|
B|---------------3---------------------------5-------------|
G|---------------4---------------------------6-------------|
D|-5-------------5-------------7-------------7-------------|
A|-5-------------5-------------7-------------7-------------|
E|-3-------------3-------------5-------------5-------------|

Lead Guitar:
e|------7---------------|
B|---------10--7--10b12-|
G|-9b11-----------------|
D|----------------------|
A|----------------------|
E|----------------------|

CHORUS:

Lead Guitar:
e|----------------------------------|
B|-10----12----10----12----10p9-----|
G|-----11----11----11----11-------9-| x8
D|---9-----9-----9-----9--------9---|
A|----------------------------------|
E|----------------------------------|

Rhythm Guitar:
e|--------------------------------------------------------------------| |
B|--------------------------------------------------------------------| |
G|-4------------------------------------------------------------------| |
D|-4----------------------------------2-------------------------------| |
A|-2----------------------------------2-------------------------------| |
E|------------------------------------0-------------------------------| |
                                                                        | x2
e|--------------------------------------------------------------------| |
B|--------------------------------------------------------------------| |
G|-2------------------------------------------------------------------| |
D|-2----------------------------------2-------------------------------| |
A|-0----------------------------------2-------------------------------| |
E|------------------------------------0-------------------------------| |

Lead Guitar:
e|--------------------------------------------------------------------|
B|-10----12----10----12----10----12----10----12----10----12----12-12\-|
G|-----11----11----11----11----11----11----11----11----11----11-------|
D|---9-----9-----9-----9-----9-----9-----9-----9-----9-----9----------|
A|--------------------------------------------------------------------|
E|--------------------------------------------------------------------|

Rhythm and Third Guitar:
e|---------------------------|
B|---------------------------|
G|-2h4-4-4-x-x-2h4-x-x-4---4-| x2
D|-2h4-4-4-x-x-2h4-x-x-4---4-|
A|-2---2-2-x-x-2---x-x-2---2-|
E|---------------------------|

VERSE 2:

Third Guitar:
e|--------|
B|--------|
G|--------|
D|-2------|
A|-2------|
E|-0------|

Rhythm Guitar:
e|---------------------------|
B|-5-5-5-5-x-x-5---x-x-5---5-|
G|-4-4-4-4-x-x-4---x-x-4---4-| x4
D|-2-2-2-2-x-x-2---x-x-2---2-|
A|---------------------------|
E|---------------------------|

Rhythm and Third Guitar:
e|-------------------------------|
B|-------------------------------|
G|-2h4-4-4-x-x-2h4-4-4-x-x-2-----| x2
D|-2h4-4-4-x-x-2h4-4-4-x-x-2---2-|
A|-2---2-2-x-x-2---2-2-x-x-0---2-|
E|---------------------------4-0-|

BRIDGE 2:

Rhythm and Third Guitar:
e|---------------3---------------------------5-------------|
B|---------------3---------------------------5-------------|
G|---------------4---------------------------6-------------|
D|-5-------------5-------------7-------------7-------------|
A|-5-------------5-------------7-------------7-------------|
E|-3-------------3-------------5-------------5-------------|

Lead Guitar:
e|------7---------------|
B|---------10--7--10b12-|
G|-9b11-----------------|
D|----------------------|
A|----------------------|
E|----------------------|

CHORUS 2:

Lead Guitar:
e|----------------------------------|
B|-10----12----10----12----10p9-----|
G|-----11----11----11----11-------9-| x7
D|---9-----9-----9-----9--------9---|
A|----------------------------------|
E|----------------------------------|

e|----------------------------------|
B|-10----12----10----12-------------|
G|-----11----11----11---------------|
D|---9-----9-----9------------------|
A|----------------------------------|
E|----------------------------------|

Rhythm and Third Guitar:
e|--------------------------------------------------------------------|
B|--------------------------------------------------------------------|
G|-4------------------------------------------------------------------|
D|-4----------------------------------2-------------------------------|
A|-2----------------------------------2-------------------------------|
E|------------------------------------0-------------------------------|

e|--------------------------------------------------------------------|
B|--------------------------------------------------------------------|
G|-2------------------------------------------------------------------|
D|-2----------------------------------2-------------------------------|
A|-0----------------------------------2-------------------------------|
E|------------------------------------0-------------------------------|

e|--------------------------------------------------------------------|
B|--------------------------------------------------------------------|
G|-4------------------------------------------------------------------|
D|-4----------------------------------2-------------------------------|
A|-2----------------------------------2-------------------------------|
E|------------------------------------0-------------------------------|

e|--------------------------------------------------------------------|
B|--------------------------------------------------------------------|
G|-2------------------------------------------------------------------|
D|-2--------------------------------------------------2-------3-------|
A|-0--------------------------------------------------2-------3-------|
E|----------------------------------------------------0-------1-------|

INTERLUDE:

Rhythm and Third Guitar:
e|-------------------------------|
B|-------------------------------|
G|-------------------------------| x2
D|-4-----4---4-4-----4-4-4-x-x-x-|
A|-4---x-4-x-4-4---x-4-4-4-x-x-x-|
E|-2---x---x---2---x---2-2-x-x-x-|

e|--------------------------------------------------------------------|
B|--------------------------------------------------------------------|
G|-2-------------------------------4----------------------------------|
D|-2-------------------------------4-------------------2------3-------|
A|-0-------------------------------2-------------------2------3-------|
E|-----------------------------------------------------0------1-------|

e|-------------------------------|
B|-------------------------------|
G|-------------------------------| x2
D|-4-----4---4-4-----4-4-4-x-x-x-|
A|-4---x-4-x-4-4---x-4-4-4-x-x-x-|
E|-2---x---x---2---x---2-2-x-x-x-|

e|--------------------------------------------------------------------|
B|--------------------------------------------------------------------|
G|-2-------------------------------4-------------------4------5-------|
D|-2-------------------------------4-------------------4------5-------|
A|-0-------------------------------2-------------------2------3-------|
E|--------------------------------------------------------------------|

Lead Guitar: (not quite shure for this part)
e|----------------------------------------------------|
B|--------------------------------------------------9-|
G|----------------------------------------9----9h11---|
D|--------------------9----9h11p9----9h11---11--------|
A|-----7h9p7---7h9/11---11--------11------------------|
E|-7h9-------9----------------------------------------|

SOLO:

Lead Guitar:
e|-------------9------12----11-|
B|-12b14----------12--12-------|
G|-----------------------------|
D|-----------------------------|
A|-----------------------------|
E|-----------------------------|

e|-9--11--9h11p9----9----12-----9---------------|
B|---------------12---12b14-12b14-12------------|
G|-----------------------------------11b12r11p9-|
D|----------------------------------------------|
A|----------------------------------------------|
E|----------------------------------------------|

e|------------------9------------------------------|
B|-------9-12------------9-------------------------|
G|-11b13------11b13---12---12-11b12r11p9-11p9------|
D|--------------------------------------------11p9-|
A|-------------------------------------------------|
E|-------------------------------------------------|

e|--------------------------------------------|
B|-9---------9--------------------------------|
G|-9---------9--------------------------------|
D|---11p9------11p9-----9---------------------|
A|--------11--------11----11--9----9----------|
E|------------------------------12----12--9\7-|

e|------------------------------|
B|------------------------------|
G|------------------------------|
D|-++++-------------------------|
A|-9b11-----7------7----9p7-----|
E|------------9-------------9p7-|

e|---------------------------------------------|
B|----------------9----11-11b12r11-9-----------|
G|----------------9----11-11b12r11-9-11p9------|
D|------9----9h11---11--------------------11p9-|
A|-9/11---11-----------------------------------|
E|---------------------------------------------|

e|-------------------12----14b16-14b16-|
B|-------12----12h14---(14)------------|
G|-11/13----13-------------------------|
D|-------------------------------------|
A|-------------------------------------|
E|-------------------------------------|

e|-12----------12----/19---14h16-|
B|----14-------------------------|
G|-------------------------------|
D|-------------------------------|
A|-------------------------------|
E|-------------------------------|

e|-------------------9-----------12-|
B|-17p14-----------9---12b14--------|
G|-----------11b13------------------|
D|----------------------------------|
A|----------------------------------|
E|----------------------------------|

e|---------------------------------------------------|
B|-9-8h9p8----8-------9-12-------9-------------------|
G|---------11---11b13------11b12---12-11p9-11p9------|
D|----------------------------------------------11p9-|
A|---------------------------------------------------|
E|---------------------------------------------------|

Rhythm Guitar:
e|---------------------------------------------------------------|
B|---------------------------------------------------------------|
G|-6---6---6---6-------------------4---4---4---4-----------------| x2
D|-6---6---6---6---4---4---4---4---4---4---4---4---4---4---4---4-|
A|-4---4---4---4---4---4---4---4---2---2---2---2---4---4---4---4-|
E|-----------------2---2---2---2-------------------2---2---2---2-|

e|--------------------------|
B|--------------------------|
G|-6---6---6---6---6--------|
D|-6---6---6---6---6--------|
A|-4---4---4---4---4--------|
E|--------------------------|

Third Guitar:
e|---------------------------------------------------------------|
B|---------------------------------------------------------------|
G|-6-------------------------------4-----------------------------| x2
D|-6---------------4---------------4---------------4-------------|
A|-4---------------4---------------2---------------4-------------|
E|-----------------2-------------------------------2-------------|

e|--------------------------|
B|--------------------------|
G|-6---------6-6-6-6--------|
D|-6---------6-6-6-6--------|
A|-4---------4-4-4-4--------|
E|--------------------------|

CHORUS 3:

Lead Guitar:
e|----------------------------------|
B|-10----12----10----12----10p9-----|
G|-----11----11----11----11-------9-| x14
D|---9-----9-----9-----9--------9---|
A|----------------------------------|
E|----------------------------------|

Rhythm and Third Guitar:
e|--------------------------------------------------------------------| |
B|--------------------------------------------------------------------| |
G|-4------------------------------------------------------------------| |
D|-4----------------------------------2-------------------------------| |
A|-2----------------------------------2-------------------------------| |
E|------------------------------------0-------------------------------| |
                                                                        | x3
e|--------------------------------------------------------------------| |
B|--------------------------------------------------------------------| |
G|-2------------------------------------------------------------------| |
D|-2----------------------------------2-------------------------------| |
A|-0----------------------------------2-------------------------------| |
E|------------------------------------0-------------------------------| |

e|--------------------------------------------------------------------|
B|--------------------------------------------------------------------|
G|-4------------------------------------------------------------------|
D|-4------------------------------------------------------------------|
A|-2------------------------------------------------------------------|
E|--------------------------------------------------------------------|

e|--------------------------------------------------------------------|
B|-2------------------------------------------------------------------|
G|-2------------------------------------------------------------------|
D|-2------------------------------------------------------------------|
A|-2------------------------------------------------------------------|
E|--------------------------------------------------------------------|

************************************

| /   slide up
| \   slide down
| h   hammer-on
| p   pull-off
| +   harmonic
| x   Mute note
| b   Bend
| br  Bend release

************************************





Comments


Popular Slash tabs & chords
Ghost 2 Bass Tabs
Beggars And Hangers On Tabs
By The Sword 4 Tabs
Gotten 2 Tabs
Mother Maria Tabs
Mother Maria Intro 1 Tabs
Standing In The Sun Tabs
The Godfather Intro Tabs
Watch This Intro 1 Tabs
Were All Gonna Die Tabs


Song lyrics



↑ Back to top | Tablatures and chords are parodies/interpretations of the original songs. You may use it for private study, scholarship, research or language learning purposes only
© 2014 AZChords.com Contact us | Privacy policy | DMCA | Add/correct tabs | Request tabs | Top 50 tabs