» » »

Isolated Tabs (ver.1)

Artists:  A B C D E F G H I J K L M N O P Q R S T U V W X Y Z # 

Isolated Tabs (ver.1)

Skrape
Rating:
0/5 (0 votes)

Tabs too difficult? Try these video lessons and learn fast.
                Hey....i havent seen any skrape tabs so i decided to start tabbing them by ear..
..this song is awesome so have fun (rather easy)
I had the chance to see skrape in concert and i managed to see how he played it.
 tuning is C-G-C-F-A-D




D|-----------------------------------------------------------------------------
A|-----------------------------------------------------------------------------
F|-----------------------------------------------------------------------------
C|-3-xx-2-xx-1--1/2\1--0-0---1/2\1--0-0---0---0--------------------------------
G|-3-xx-2-xx-1--1/2\1--0-0---1/2\1--0-0---0---0--------------------------------
C|-3-xx-2-xx-1--1/2\1--0-0---1/2\1--0-0---0---0--------------------------------
 Intro/Verse         ...          . .   .   .    all 0's p.m.                 




D|------------------------------------------------------------------------------
A|------------------------------------------------------------------------------
F|------------------------------------------------------------------------------
C|--5-5-5-5-\3-3-3-3-\1-1-1-1-/8-8-8-8--5-5-5-5-\3-3-3-3-\-1-1-1-1-/3-3-3-3-----
G|--5-5-5-5-\3-3-3-3-\1-1-1-1-/8-8-8-8--5-5-5-5-\3-3-3-3-\-1-1-1-1-/3-3-3-3-----
C|--5-5-5-5-\3-3-3-3-\1-1-1-1-/8-8-8-8--5-5-5-5-\3-3-3-3-\-1-1-1-1-/3-3-3-3-----
  Chorus                                                                      





D|------------------------------------------------------------------------------
A|------------------------------------------------------------------------------
F|---7vvvvv------9vvvvv----12vvvvv----------------------------------------------
C|---x-----------x---------x------------12\\\\\1--------------------------------
G|---5vvvvv------7vvvvv----10vvvvv------12\\\\\1--------------------------------
C|--------------------------------------12\\\\\1--------------------------------
  Bridge Part 1 w/ feedback           big slide                               




D|------------------------------------------------------------------------------
A|------------------------------------------------------------------------------
F|------------------------------------------------------------------------------
C|---0-5-3-0-5-3-0-5------------------------------------------------------------
G|---0-5-3-0-5-3-0-5------------------------------------------------------------
C|---0-5-3-0-5-3-0-5------------------------------------------------------------
   Bridge Part 2                                                              




D|------------------------------------------------------------------------------
A|------------------------------------------------------------------------------
D|------------------------------------------------------------------------------
C|--3-xx-2-xx-1--1/2\1----------------------------------------------------------
G|--3-xx-2-xx-1--1/2\1----------------------------------------------------------
C|--3-xx-2-xx-1--1/2\1----------------------------------------------------------
 end on
            
Tabs too difficult? Try these video lessons and learn fast.




comments powered by Disqus
↑ Back to top | Tablatures and chords are parodies/interpretations of the original songs. You may use it for private study, scholarship, research or language learning purposes only