» » »

Isolated Bass tabs (ver.1)

Artists:  A B C D E F G H I J K L M N O P Q R S T U V W X Y Z # 

Isolated Bass tabs (ver.1)

Skrape
Rating:
0/5 (0 votes)

Hard to play? Try these video lessons and learn fast.
                Good song, nice heavy riff.  Skrape is going to be very big after this 
summer's tour with Pantera, Static-x, and Slayer. Go to mtv2.com and vote 
for there new single video "waste"

dropped tuning, 4 string bass

verse X 10
G(------------------------------------------------------------------)
D(------------------------------------------------------------------)
A(------------------------------------------------------------------)
D(--5-4-3-3-0-0-0-0-0-0---------------------------------------------)

chorus X 4
G(------------------------------------------------------------------)
D(------------------------------------------------------------------)
A(------------------------------------------------------------------)
D(-2-2-2-2-0-0-0-0-6-6-6-6-9-9-9-9-9--------------------------------)

verse X 10
G(------------------------------------------------------------------)
D(------------------------------------------------------------------)
A(------------------------------------------------------------------)
D(--5-4-3-3-0-0-0-0-0-0---------------------------------------------)

chorus X 8
G(------------------------------------------------------------------)
D(------------------------------------------------------------------)
A(------------------------------------------------------------------)
D(-2-2-2-2-0-0-0-0-6-6-6-6-9-9-9-9-9--------------------------------)

Bridge X 23
G(------------------------------------------------------------------)
D(------------------------------------------------------------------)
A(------------------------------------------------------------------)
D(-0-2-3-0-0-2-3-5-0------------------------------------------------)

chorus X 8
G(------------------------------------------------------------------)
D(------------------------------------------------------------------)
A(------------------------------------------------------------------)
D(-2-2-2-2-0-0-0-0-6-6-6-6-9-9-9-9-9--------------------------------)

outro, same as verse X 6
G(------------------------------------------------------------------)
D(------------------------------------------------------------------)
A(------------------------------------------------------------------)
D(--5-4-3-3-0-0-0-0-0-0---------------------------------------------)

Thats it, easy song, listen to the cd, get the timing down.
            
Hard to play? Try these video lessons and learn fast. | Correct




comments powered by Disqus
↑ Back to top | Tablatures and chords are parodies/interpretations of the original songs. You may use it for private study, scholarship, research or language learning purposes only