» » »

Sixpence None The Richer, Kiss Me Chords (ver.1)

Artists:  A B C D E F G H I J K L M N O P Q R S T U V W X Y Z # 

Kiss Me Chords (ver.1)

Sixpence None The Richer Tabs
 Rating:
1.1/5 (131 vote)
Kiss Me lessons Tabs too difficult? Try these video lessons and learn fast
1
                Artista: Sixpence None The Richer
Cancion: Kiss Me

Julio Alberto Sebastian Baena

Ls mejor tab de todas

Acordes
             
C      (032010)
Cmaj7  (032000)
C7     (032310)
Dm     (xx0231)
G      (320033)
Am     (002210)

Intro: C Cmaj7 C7 Cmaj7

Verso 1:
C      Cmaj7                     C7 
Kiss me out of the bearded barley
        Cmaj7                         C
Nightly, beside the green, green grass
             Cmaj7                   C7
Swing, swing, swing the spinning step
                                F
You wear those shoes and I will wear that dress

Coro:
   Dm    G   C           Am              Dm
Oh, kiss me.. beneath the milky twilight
    G        C           C7            F
Lead me ....  out on the moonlit floor
     G              C
Lift your open hand
            Em              Am               G                        F
Strike up the band, make the fireflies dance, silver moon's sparkling
G Gsus4 G
.........So kiss me 

*repite intro*


Verso 2:
C      Cmaj7                         C7
Kiss me down by the broken tree house
        Cmaj7                  C
Swing me upon its hanging tire
             Cmaj7                   C7
Bring, bring, bring your flowered hat
                                   F
We'll take the trail marked on your father's map  

*repite coro*

Intermedio: 

-----------0----------0--|-----------0----------0--|
-----1----------1--------|-----0----------0--------|
--------0----------0-----|--------0----------0-----|
-------------------------|-------------------------|
--3----------------------|--3----------------------|
-------------------------|-------------------------|

-----------0----------0--|-----------0------------|
-------------------------|-----0----------0-------|
-----3--0-------3--0-----|--------0----------0----|
-------------------------|------------------------|
--3----------------------|--3---------------------|
-------------------------|------------------------|
                                                      

Solo

|----5---5--3--------3-----|
|----5h6-5--3-----3--3--3--|
|----7---7--4--4--4-----4--|
|--------------5-----------|
|--------------------------|
|--------------------------|

------------------------|----5---5--0--------------|
--------------5---------|----5h6-5--0--------0-----|
--5--5--4-----5----5----|----7---7--0-----0-----0--|
-----------5-------7----|--------------0-----------|
------------------------|--------------------------|
------------------------|--------------------------|

----8-8-8/10-10-10/12--------|
----x-x-x-x--x--x--x---------|
----5-5-5/7--7--7/-9---------|
----x-x-x-x--x--x--x---------|
----3-3-3/5--5--5/-7---------|
-----------------------------|

*repite coro*

*repite intro* (X3)

Fin
            
Submit corrections

comments powered by Disqus
↑ Back to top | Sixpence None The Richer Chords for Kiss Me. Lyrics for acoustic guitar and electric guitar. 1 Tablatures and chords are parodies/interpretations of the original songs. You may use it for private study, scholarship, research or language learning purposes only