» » »

The Damage Done Bass tabs (ver.1)

Artists:  A B C D E F G H I J K L M N O P Q R S T U V W X Y Z # 

The Damage Done Bass tabs (ver.1)

Sisters Of Mercy
Rating:
3/5 (1 vote)

Hard to play? Try these video lessons and learn fast.
                
Riff:
G|---------------32----||
D|------3223-3-3----32-||
A|-3--3----------------||
E|---------------------||   x 12

Fill:
G|--------------------------||
D|--------------------------||
A|-9--9-7--7-9--9-4--4-7--7-||
E|--------------------------||

Riff x4

Fill

Riff x8

Fill

Riff x8

Fill

Riff x8
            
Hard to play? Try these video lessons and learn fast. | Correct




comments powered by Disqus
↑ Back to top | Tablatures and chords are parodies/interpretations of the original songs. You may use it for private study, scholarship, research or language learning purposes only