» » »

Sisters Of Mercy, Some Kind Of Stranger Tabs (ver.2)

Artists:  A B C D E F G H I J K L M N O P Q R S T U V W X Y Z # 

Some Kind Of Stranger Tabs (ver.2)

Sisters Of Mercy Tabs
 Rating:
4/5 (4 votes)
Some Kind Of Stranger lessons Tabs too difficult? Try these video lessons and learn fast
1
                This is as far as I could get with the intro to Some Kind of Stranger.

||--3--3---5--1---3--1--0------------------------------------------------------
||--0--------------------------------------------------------------------------
||--0--------------------------------------------------------------------------
||--0--------------------------------------------------------------------------
||--------------------------0--------------------------------------------------
||-----------------------------------------------------------------------------
The chord sequence at the start is :

G ///////  Am// Am7/ Am/ C// D////

I think....

The Chorus is:

D C B A

That I hope is enough to get you going....

Something Fast:
```````````````
 Am //// E// C/     - Verse
 G  //// Bm/// Em//// - Chorus.
	 End of chorus: Dsus2 slide up 2 frets
	 ie
 	e ||----0--0--0
	b ||----3--5--5
	g ||----2--4--4

I was Wrong:
~~~~~~~~~~~~
Verse: B            D            A
       B            D            A       E

Chorus: B            D
	B            D
            
Submit corrections

comments powered by Disqus
↑ Back to top | Sisters Of Mercy Tabs for Some Kind Of Stranger. Lyrics for acoustic guitar and electric guitar. 1 Tablatures and chords are parodies/interpretations of the original songs. You may use it for private study, scholarship, research or language learning purposes only