» » »

Sisters Of Mercy, Lucretia Tabs (ver.2)

Artists:  A B C D E F G H I J K L M N O P Q R S T U V W X Y Z # 

Lucretia Tabs (ver.2)

Sisters Of Mercy Tabs
Rating:
0/5 (0 votes)
Hard to play? Try these video lessons and learn fast.
                
Comments
~~~~~~~~
This is really a bass line, as for the most part there is no
guitar in the song.   However, it can be doubled, or you can
beef up the guitar sound by playing it as in the second tab

|------------------------------------------------
|------------------------------------------------
|------------------------------------------------
|---------------------------3-2-------------3-2--
|-------------------3-3-3-3-------5---5-5-5------
|---5-5-5-5-5-5-5-5------------------------------

Repeat.

OR:

|------------------------------------------------
|------------------------------------------------
|------------------------------------------------
|-------------------5-5-5-5-3-2---7---7-7-7-3-2--
|---7-7-7-7-7-7-7-7-3-3-3-3-------5---5-5-5------
|---5-5-5-5-5-5-5-5------------------------------

Repeat.

Guitar chords during the chorus are very much in the background and
seem to mirror the basic changes of the bass line.
            

comments powered by Disqus
↑ Back to top | Sisters Of Mercy Tabs for Lucretia. Lyrics for acoustic guitar and electric guitar. Tablatures and chords are parodies/interpretations of the original songs. You may use it for private study, scholarship, research or language learning purposes only