» » »

Sisters Of Mercy, Giving Ground Bass tabs (ver.2)

Artists:  A B C D E F G H I J K L M N O P Q R S T U V W X Y Z # 

Giving Ground Bass tabs (ver.2)

Sisters Of Mercy Tabs
Rating:
0/5 (0 votes)
Giving Ground lessons Tabs too difficult? Try these video lessons and learn fast
                "Giving Ground" by The Sisters of Mercy (from the album ???)


Bass 1:
-------

riff a:
A|-0---0---0---0---0---0---0---0---0---0---0---0-------------------
E|-----------------------------------------------0-0---0---0---0---

riff b:
A|-0---0---------------------------0---0---------------------------
E|---------3---3---1---1---3---3-----------3---3---1---1---3---3---

riff c:
G|-----2-------0-----------0-----------2-------0-------------------
D|---------------------3-----3-23----------------------3-----------
A|-0-----------------------------3-0-------------------------------
E|---------3-3---3-1-----------------------3-3---3-1---------3-3-5-

riff d:
G|-----2-------0-----------0-------
D|---------------------3-----3-23--
A|-0-----------------------------3-
E|---------3-3---3-1---------------

riff e:
G|-----2-------0-----------0-----------2-------0-----------0-------
D|---------------------3-----3-23----------------------3-----------
A|-0-----------------------------3-0-------------------------------
E|---------3-3---3-1-----------------------3-3---3-1---------1-3---


Bass 2:
-------

riff a:
E|---------------------------3-3-3---------------------------3-3-3-


Guitar:
-------

riff a:
e|-------------------------------------------------------------00--
B|-----------------------------------------------------------11----
G|---------------------------------------------------------00------

riff b:
e|-----00------00------11------00------00------00------11------00--
B|---11--11--11--11--11--11--11--11--11--11--11--11--11--11--11--11
G|-22------00--------------00------22------00--------------00------
D|-----------------33------------------------------33--------------

riff c:
e|-------------------------------------00------00------11------00--
B|-----------------------------------11--11--11--11--11--11--11--11
G|---------------------------------22------00--------------00------
D|-------------------------------------------------33--------------

riff d:
e|-----00------00------11------00--
B|---11--11--11--11--11--11--11--11
G|-22------00--------------00------
D|-----------------33--------------

riff e:
e|-----00------00------11------00------00------00------11----------
B|---11--11--11--11--11--11--11--11--11--11--11--11--11--1---------
G|-22------00--------------00------22------00----------------------
D|-----------------33------------------------------33--------------

riff f:
e|-----00------00------11------00------00------00------11------0---
B|---11--11--11--11--11--11--11--11--11--11--11--11--11--11--11----
G|-22------00--------------00------22------00--------------00------
D|-----------------33------------------------------33--------------


Synth 1:
--------

riff a:
e|--------000-----------------------------000----------------------
B|-----------11--11--------------------------11--11----------------
G|-2222222-----22------------------2222222-----22----------00000000
D|-----------------3333333322222222----------------22222222--------

riff b:
e|--------000------------------------------00----------------------
B|-----------11--11--------------------------11--1-----------------
G|-2222222-----00----------0000000022222222----00-0--------00000000
D|-----------------33333333------------------------33333333--------

riff c:
e|--------000----------------------
B|-----------11--11----------------
G|-2222222-----00----------00000000
D|-----------------33333333--------


Synth 2:
--------

riff a:
D|--------222-----------------------------222----------------------
A|-0000000---330033----------------0000000---330033----------------
E|-----------------1111111100000000----------------0000000033333333

riff b:
D|--------222------------------------------22----------------------
A|-0000000---330033----------------00000000--33003-----------------
E|-----------------1111111133333333---------------31111111133333333

riff c:
D|--------222----------------------
A|-0000000---330033----------------
E|-----------------1111111133333333


Synth 3:
--------

riff a:
B|-------------------------------------------------00000000--------
G|-222222222222222222222222222222222222222222222222--------00000000

riff b:
B|-------------------------------------------------00000000000000--
G|-222222222222222222222222222222222222222222222222--------------00

riff c:
e|-5555555555555555111111111111111155555555555555551111111111111111

riff d:
e|---------------------------------55555555555555555555555555555555

riff e:
e|-55555555555555551111111111111111


Synth 4:
--------

riff a:
B|-----------------------------------------------------0---0---0---

riff b:
A|-0---------------------------------------------------------------

riff c:
A|-------------------------------------------------0---------------

riff d:
A|---------------------------------------------------------0-------

riff e:
A|---------------------------------0------------------------------4


Synth 5:
--------

riff a:
e|---------------------------------------------1-0-----------------
B|---------1-----3---------1-----------------1---------1-3---------
G|-2-----------------------------2-2-----------------2---------0-2-
D|-----------------------------------------------------------2-----

riff b:
e|-5-------3-----1-------------------------------------------------
B|-------------------------1---------------------------------------
G|-------------------------------2-2-------------------------------

riff c:
e|-5-------3-----1-----------------------------1-0-----------------
B|-------------------------1-----------------1---------1-3---------
G|-------------------------------2-2-----------------2---------0-2-
D|-----------------------------------------------------------2-----


How to play:
------------

bass 1:  |a a b c|c c c c|a c c c|c c c c|c c c c|c c a c|c d a c c|c c c c|
bass 2:  |    a  |       |       |       |       |       |         |       |
guitar:  |      a|       |       |b b b b|b b b b|b b    |c d   b b|b b b b|
synth 1: |a a b b|       |a b b b|       |       |    a b|b c b    |       |
synth 2: |a a b b|       |a b b b|       |       |    a b|b c b    |       |
synth 3: |a b c c|       |b c c c|       |  d    |    a c|c e c    |       |
synth 4: |a a b -|- - -  |       |       |      c|  d -  |    b   c|       |
synth 5: |       |       |       |      a|b      |a b    |b        |a b c b|

bass 1:  |c c c c|e  |
bass 2:  |       |   |
guitar:  |b b b e|f  |
synth 1: |       |   |
synth 2: |       |   |
synth 3: |       |   |
synth 4: |       |e -|
synth 5: |-      |   |
            
Submit corrections

comments powered by Disqus
↑ Back to top | Sisters Of Mercy Bass for Giving Ground. Lyrics for acoustic guitar and electric guitar. Tablatures and chords are parodies/interpretations of the original songs. You may use it for private study, scholarship, research or language learning purposes only