>
 >
A Rock And A Hard Place

A Rock And A Hard Place Bass Tabs

Sisters Of Mercy - A Rock And A Hard Place chords, tabs, tablatures, lyrics

Guitar lessons | Add/correct | Request | Top 50 tabs Artists:  A B C D E F G H I J K L M N O P Q R S T U V W X Y Z 0-9

A Rock And A Hard Place Bass Tabs – Sisters Of Mercy

CD, Sheet music, Poster

Do you like A Rock And A Hard Place? Share with your friends now
Bass TabsBass Tabs v2
"A Rock and a Hard Place" by the Sisters of Mercy (from the album "First And Last And Always")

BASS :

riff a:
D|-3-3---3-3-3---3-----------------3-3---3-3-3---3-----------------
A|-----------------4-4---4-4-4---4-----------------4-4---4-4-4---4-

riff b:
D|-3-3---3-3-3---3-3-3---3-3-3---3-3-3---3-3-3---3-3-3---3-3-3---3-

riff c:
G|-------------------------------------------------1-1-1-1-3-3-3-3-
D|-3-3-3-3-3-3-3-3-------------1-1-3-3-3-3-3-3-3-3-----------------
A|-----------------4-4-4-4-4-4-------------------------------------

riff d:
D|-3-------------------------------3-------------------------------
A|-----------------4-------------------------------4---------------

riff e:
D|-----------------3-3-3-3-3-3-3-3-----------------3-3-3-3-3-3-3-3-
A|-1-1-1-1-1-1-1-1-----------------1-1-1-1-1-1-1-1-----------------


GUITAR 1 :

riff a:
e|-----------------------------6-------8-----------------------6---
B|-6---6-6---------------------------6---6-------------------------
G|---------5-8-5---6-5-5-6-8-6-----5-------5-8-5---6-5-5-6-8-6-----

riff b:
e|-----------------------------6-------8---------------------------
B|---6-6-6---------------------------6---6-------------------------
G|-8-------5-8-5---6-5-5-6-8-6-----5-------5-8-5---565-------------
D|-----------------------------------------------------8-6-5-6-----
A|-------------------------------------------------------------6---

riff c:
e|-----------------------------6-------8---------------------------
B|-6---6-6---------------------------6---6-------------------------
G|---------5-8-5---6-5-5-6-8-6-----5-------5-8-5---565-------------
D|-----------------------------------------------------7-6-5-6-----
A|-------------------------------------------------------------6---


GUITAR 2 :

riff a:
B|-----------------------2-------2-1---------------------2-------2-
G|-------------------0-1-----0-1---------------------0-1-----0-1---
D|-----------------------------------------------------------------
A|-----------------3-------3-----------------------3-------3-------

riff b:
D|-3-------------------------------3-------------------------------
A|---------3-------4-3---4-3-1-------------3-------4-3---4-3-1---3-
E|-----------------------------4-------------------------------4---


GUITAR 3 :

riff a:
e|-----------1---------------1---------------1---------------1-----
B|-------------1---------------1---------------1---------------1---

riff b:
e|-----------------------------------------------------------1-----
B|-------------------------------------------------------------1---

riff c:
e|---------------------------1-------------------------------1-----
B|-----------------------------1-------------------------------1---


GUITAR 4 :

riff a:
D|-3---------------1-------------------------------1---------------
A|---------------------------------4-------------------------------

riff b:
D|-3-------------------------------3-------------------------------
A|---------3-------4-3---4-3-1-------------3-------4-3---4-3-1---3-
E|-----------------------------4-------------------------------4---


GUITAR 5 :

riff a:
G|-6-6-6-6-6-6-6-6-5-5-5-5-5-5-5-5-3-3-3-3-3-3-3-310-8---6---5-----

riff b:
D|-3-------------------------------3-------------------------------
A|---------3-------4-3---4-3-1-------------3-------4-3---4-3-1---3-
E|-----------------------------4-------------------------------4---


GUITAR 6 :

riff a:
e|-9999999999999999888888888888888866666666666666666666666666666666


GUITAR 7 :

riff a:
  ---------------------------------A#--A#--------------------------

riff b:
  -C#--C#--------------------------A#--A#----------A#--A#--A#--A#--


GUITAR 8 :

riff a:
A|-----------------------------------------------------------1-1-1-

riff b:
D|-3-------------------------------3-------------------------------
A|---------3-------4-3---4-3-1-------------3-------4-3---4-3-1---3-
E|-----------------------------4-------------------------------4---


SYNTH 1 :

riff a:
D|-3-3-3-3-3-3-3-3-3-3-3-3-3-3-3-3-3-3-3-3-3-3-3-3-3-3-3-3-3-3-3-3-


SYNTH 2:

riff a:
B|-2---------------1-----------------------------------------------
G|---------------------------------3-------------------------------


PIANO :

riff a:
e|-----------------------------------------------------------6-6---
B|-----------------------------------------------------------------


HOW TO PLAY :

bass:    |a a a a|b b b b|c c|d|b b|c c|e e|c c|c c|c c|c c|c c|c c|
guitar 1:|    a b|       |   |c|   |   |   |   |   |   |   |   |   |
guitar 2:|    a a|       |b b| |   |b b|   |   |b b|b b|a a|a a|a a|
guitar 3:|       |a a a a|   | |a a|  b|   |   |   |   |c c|c c|c c|
guitar 4:|       |a a a a|b b| |a a|b b|   |   |b b|b b|b b|b b|b b|
guitar 5:|       |       |   | |   |   |a a|   |   |b b|b b|b b|b b|
guitar 6:|       |       |   | |   |   |a a|   |   |   |   |   |   |
guitar 7:|       |       |   | |   |   |a b|   |   |   |   |   |   |
guitar 8:|       |       |   | |   |   |   |  a|b b|b b|b b|b b|b b|
synth 1: |       |a a a a|   | |a a|   |   |   |   |   |   |   |   |
synth 2: |       |       |   | |   |   |a a|   |   |   |   |   |   |
piano:   |       |       |   | |   |   |   |   |   |   |  a|  a





Comments


Popular Sisters Of Mercy tabs & chords
Kiss The Carpet Bass Tabs
Marian 1 Bass Tabs
No Time To Cry Bass Tabs
No Time To Cry 1 Bass Tabs
Jolene Chords
195 Tabs
1959 Tabs
Body And Soul 1 Tabs
Temple Of Love Tabs
Walk Away 1 Tabs


Song lyrics



↑ Back to top | Tablatures and chords are parodies/interpretations of the original songs. You may use it for private study, scholarship, research or language learning purposes only
© 2014 AZChords.com Contact us | Privacy policy | DMCA | Add/correct tabs | Request tabs | Top 50 tabs