>
 >
The Path To Decay 1

The Path To Decay 1 Guitar Tabs

Sirenia - The Path To Decay 1 chords, tabs, tablatures, lyrics

Guitar lessons | Add/correct | Request | Top 50 tabs Artists:  A B C D E F G H I J K L M N O P Q R S T U V W X Y Z 0-9

The Path To Decay 1 Guitar Tabs – Sirenia

CD, Sheet music, Poster

Do you like The Path To Decay 1? Share with your friends now
TabsTabs v2
irenia
The Path To Decay
Tuning: B-F#-B-E-G#-C#
Legend:
x = mute Strings
h = hammer-on
p = pull-off
/ = slide up
\ = slide down
b = bend up or down
. = palm-mute
~ = vibrato
()= Let ring


INTRO

C#|------------------------------|--------------------------------|
G#|------------------------------|--------------------------------|
E |------------------------------|--------------------------------|
B |----------2-0-2--2------------|-----------2-0-2--2-------------|
F#|----------2-0-2--2------------|-----------2-0-2--2-------------|
B |----------2-0-2--2------------|-----------2-0-2--2-------------|

C#|-------------------------------|---------------------------|
G#|-------------------------------|---------------------------|
E |-------------------------------|---------------------------|
B |-2-0-2--2--2-0-2-5-2--2--2-0-X-|--7---7--7-7---5---5--5-5--|
F#|-2-0-2--2--2-0-2-5-2--2--2-0-X-|--7---7--7-7---5---5--5-5--|
B |-2-0-2--2--2-0-2-5-2--2--2-0-X-|--7---7--7-7---5---5--5-5--|


C#|-------------------------------|---------------------------|
G#|-------------------------------|---------------------------|
E |-------------------------------|---------------------------|
B |-2-0-2--2--2-0-2-5-2--2--2-0-X-|--0---0--0-0---3---3--3-3--|
F#|-2-0-2--2--2-0-2-5-2--2--2-0-X-|--0---0--0-0---3---3--3-3--|
B |-2-0-2--2--2-0-2-5-2--2--2-0-X-|--0---0--0-0---3---3--3-3--|


VERSE 1
C#||-------------------------|------------------------|
G#||-------------------------|------------------------|
E ||-------------------------|------------------------|
B ||--2---2-2-2-2---2-2-2-3--|-2---2-2-2-2---2-2-2-0--|
F#||--2---2-2-2-2---2-2-2-3--|-2---2-2-2-2---2-2-2-0--|
B ||--2---2-2-2-2---2-2-2-3--|-2---2-2-2-2---2-2-2-0--|
          . . .     . . .          . . .     . . .

C#|------------------------|-----------------------------|
G#|------------------------|-----------------------------|
E |------------------------|-----------------------------|
B |-2---2-2-2-2---2-2-2-3--|-5---5-5-5-5--3-5-3-5-3-2-3--|
F#|-2---2-2-2-2---2-2-2-3--|-5---5-5-5-5--3-5-3-5-3-2-3--|
B |-2---2-2-2-2---2-2-2-3--|-5---5-5-5-5--3-5-3-5-3-2-3--|
        . . .     . . .          . . .    . . . . . . .

CHORUS

C#||---------------------------|----------------------------------------|
G#||---------------------------|----------------------------------------|
E ||*--------------------------|----------------------------------------|
B ||*-7--7-7-7-7-7-7-7-7-7-7-7-|-5--5-5-5-5-5--0--0-0-0-0-0-0-0-0-0-0-0-|
F#||--7--7-7-7-7-7-7-7-7-7-7-7-|-5--5-5-5-5-5--0--0-0-0-0-0-0-0-0-0-0-0-|
B ||--7--7-7-7-7-7-7-7-7-7-7-7-|-5--5-5-5-5-5--0--0-0-0-0-0-0-0-0-0-0-0-|


C#|--------------------------|---------------------------------||
G#|--------------------------|---------------------------------||
E |--------------------------|---------------------------------||
B |-7--7-7-7-7-7-7-7-7-7-7-7-|-5--5-5-5-5-5--0--0-0-0-3-2-0-0--||
F#|-7--7-7-7-7-7-7-7-7-7-7-7-|-5--5-5-5-5-5--0--0-0-0-3-2-0-0--||
B |-7--7-7-7-7-7-7-7-7-7-7-7-|-5--5-5-5-5-5--0--0-0-0-3-2-0-0--||
                                                . . . . . . .

(repeat lines 2 and 3 of the INTRO)

VERSE 2 (Repeat verse 1)

CHORUS

C#||---------------------------|----------------------------------------|
G#||---------------------------|----------------------------------------|
E ||*--------------------------|----------------------------------------|
B ||*-7--7-7-7-7-7-7-7-7-7-7-7-|-5--5-5-5-5-5--0--0-0-0-0-0-0-0-0-0-0-0-|
F#||--7--7-7-7-7-7-7-7-7-7-7-7-|-5--5-5-5-5-5--0--0-0-0-0-0-0-0-0-0-0-0-|
B ||--7--7-7-7-7-7-7-7-7-7-7-7-|-5--5-5-5-5-5--0--0-0-0-0-0-0-0-0-0-0-0-|


C#|--------------------------|---------------------------------||
G#|--------------------------|---------------------------------||
E |--------------------------|---------------------------------||
B |-7--7-7-7-7-7-7-7-7-7-7-7-|-5--5-5-5-5-5--0--0-0-0-3-2-0-0--||
F#|-7--7-7-7-7-7-7-7-7-7-7-7-|-5--5-5-5-5-5--0--0-0-0-3-2-0-0--||
B |-7--7-7-7-7-7-7-7-7-7-7-7-|-5--5-5-5-5-5--0--0-0-0-3-2-0-0--||
                                                . . . . . . .
BRIDGE

C#||--------------------------|------------------------------||
G#||--------------------------|------------------------------||
E ||*-------------------------|------------------------------||
B ||*-0--0--7--0-0---0-0-0-1--|-0--0--7--0-0--0-3-0-1-0-3-0--||
F#||--0--0--5--0-0---0-0-0-1--|-0--0--5--0-0--0-3-0-1-0-3-0--||
B ||--0--0-----0-0---0-0-0-1--|-0--0-----0-0--0-3-0-1-0-3-0--||
               .     . . .               .    . . . . . . .
SOLO (Guitar 2 Plays Chorus During Solo)

C#|----------------------------------|----------------------------|
G#|----/13-13-12h13p13-10--8--12--10-|--10-10-12-13-15---13-12-13-|
E |----------------------------------|----------------------------|
B |----------------------------------|----------------------------|
F#|----------------------------------|----------------------------|
B |----------------------------------|----------------------------|

C#|----------------------------------|----------------------------------|
G#|-12h13p12--10--8--12b(13)--10-----|-/17-17-15h17p15-13--12-12h13--15-|
E |----------------------------------|----------------------------------|
B |----------------------------------|----------------------------------|
F#|----------------------------------|----------------------------------|
B |----------------------------------|----------------------------------|

C#|-------------------------------|------------------------------------|
G#|-15-15-13-15-17----10-13-12----|-17p15p13-15p13\12-13p12\10-12p10\8-|
E |-------------------------------|------------------------------------|
B |-------------------------------|------------------------------------|
F#|-------------------------------|------------------------------------|
B |-------------------------------|------------------------------------|

C#|----------------------------|--------------|
G#|-10p8\7-8p7\5-7p5\3-5/7p5---|-5-4-5-4-2----|
E |----------------------------|--------------|
B |----------------------------|--------------|
F#|----------------------------|--------------|
B |----------------------------|--------------|
                                 . . . . ~

C#|------------------------------------15p14p12----------17p15p14----------|
G#|--------------------------12h13h15-----------15p13p12----------17p15p13-|
E |---------9h11h12-11h12h14-----------------------------------------------|
B |-9h10h12----------------------------------------------------------------|
F#|------------------------------------------------------------------------|
B |------------------------------------------------------------------------|

C#|----------|
G#|-17-------|
E |----------|
B |----------|
F#|----------|
B |----------|
    ~

FINAL CHORUS ( Play first part of the chorus as normal)


C#|-----------|
G#|-----------|
E |-----------| let it ring then play second part of chorus
B |(0)--------|
F#|(0)--------|
B |(0)--------|

C#|--------------------------------------|---------------------------------|
G#|--------------------------------------|---------------------------------|
E |--------------------------------------|---------------------------------|
B |-10--10-10-10-10-10-10-10-10-10-10-10-|-8--8-8-8-8-3--3-3-3-3-3-3-3-3-3-|
F#|-10--10-10-10-10-10-10-10-10-10-10-10-|-8--8-8-8-8-3--3-3-3-3-3-3-3-3-3-|
B |-10--10-10-10-10-10-10-10-10-10-10-10-|-8--8-8-8-8-3--3-3-3-3-3-3-3-3-3-|

C#|--------------------------------------|--------------------------------|
G#|--------------------------------------|--------------------------------|
E |--------------------------------------|--------------------------------|
B |-10--10-10-10-10-10-10-10-10-10-10-10-|-8--8-8-8-8-3--3--3-3-3-6-5-3-3-|
F#|-10--10-10-10-10-10-10-10-10-10-10-10-|-8--8-8-8-8-3--3--3-3-3-6-5-3-3-|
B |-10--10-10-10-10-10-10-10-10-10-10-10-|-8--8-8-8-8-3--3--3-3-3-6-5-3-3-|
                                                            . . . . . . .
(Listen Carefully after the second time of the final chorus there are notes that are 
muted put same notes as chorus)
(repeat the first 3 lines of the FINAL CHORUS)

C#|------------------------------|
G#|------------------------------|
E |------------------------------|
B |-5--3--1--0-(10)--------------|
F#|-5--3--1--0-(10)--------------|
B |-5--3--1--0-(10)--------------|
               Let Ring...........
Finished!!





Comments


Popular Sirenia tabs & chords
Manic Aeon Bass Tabs
A Shadow Of Your Own Self Accoustic Chords
Glades Of Summer Chords
In Sumerian Haze Chords
A Mental Symphony Tabs
Lithium And A Lover Tabs
Sister Nightfall Tabs
Voices Within Tabs
Glades Of Summer Ukulele
In Sumerian Haze Ukulele


Song lyrics



↑ Back to top | Tablatures and chords are parodies/interpretations of the original songs. You may use it for private study, scholarship, research or language learning purposes only
© 2014 AZChords.com Contact us | Privacy policy | DMCA | Add/correct tabs | Request tabs | Top 50 tabs