» » »

Candyman Tabs (ver.2)

Artists:  A B C D E F G H I J K L M N O P Q R S T U V W X Y Z # 

Candyman Tabs (ver.2)

Siouxsie And The Banshees
Rating:
0/5 (0 votes)

Hard to play? Try these video lessons and learn fast.
                Candyman - Siouxsie & the Banshees

Mick 2009

Am	Em	x3

          G                          F

     H.   E  E  E  E  E  E  E  E     E  E  E  E  E  E  E  E   
E||----|--------------------------|--------------------------|
B||----|--------------------3-----|--------------6-----------|
G||----|--5-----3-----5-----------|--5--3-----3-----3-----3--|
D||-5--|-----5-----5-----5-----5--|--------5-----------5-----|
A||----|--------------------------|--------------------------|
E||----|--------------------------|--------------------------|

  Eb                         C  

  E  E  E  E  E  E  E  E     E  E  E  E  E  E  E  E   
--------------------3-----|--------------6-----------|
--6-----4-----6-----------|--6--4-----4-----4-----4--|
-----3-----3-----3-----3--|--------5-----------5-----|
--------------------------|--------------------------|
--------------------------|--------------------------|
--------------------------|--------------------------|


G            F    Eb           C
Sickly sweet, his poison seeks
        G                    F        
For the young ones who don't understand
    Eb            C 
The danger in his hands
       G             F        Eb           C
With a jaundiced wink see his cunning slink
   G              F         
Oh trust in me my pretty one
     Eb              C
Come walk with me my helpless one

Dm
Candyman

G         F    Eb             C
Syrup lies    upon your tongue
G           F    
Gelatine saliva spills
    Eb               C
The flash of a guillotine a smile

Dm
Candyman - oh candyman

Am	Em	x3

Am	B	x4

Am          B          Am     B
No pity for him, their misery screams
        Am         B
Unspeakable things

Am	B

Am          B          Am     B
No pity for him, their misery screams
        Am         B
Unspeakable things
     Am     B
Candyman

  C	
   Q    Q    Q    Q     
|----------------------|
|----------------------|
|-----------------0----|
|-------1----3---------|
|--3-------------------|
|----------------------|
  Bb	

  E  E  E  E  E  E  E  E          
--------------------------|
--------------------------|
--------------3-----------|
--3--1-----1-----1-----1--|
--------3-----------3-----|
--------------------------|
  G#	
  
   Q    Q    Q    Q     
|----------------------|
|----------------------|
|-----------------0----|
|-------1----3---------|
|--3-------------------|
|----------------------|
  F

  E  E  E  E  E  E  E  E          
--------------------------|
--------------------------|
--------------3-----------|
--3--1-----1-----1-----1--|
--------3-----------3-----|
--------------------------|

  C           Bb         G#	      F
A cool missile, yes it's in his smile
     C	          Bb	
With open arms to welcome you
  G#	             F
Beware the masked pretender
   C          Bb     G#	      F
He always lies, this candyman
      C                Bb         
Those lips conspire in treachery
   G#	               F
To strike in cloak and dagger, see!

Dm
Candyman - oh candyman

Am

Am	B	x2

Am          B            Am	       B
And all the children, he warns ``don't tell,''
                  Am	B	Am	B
Those threats are sold
           Am        B          Am	         B 
With their guilt and shame they think they're to blane
         Am	B        Am	    B
For candyman        candyman 

     Am     B        Am	    B
Candyman        candyman 

     Am     B
Candyman


Mick 2009
            
Hard to play? Try these video lessons and learn fast. | Correct




comments powered by Disqus
↑ Back to top | Tablatures and chords are parodies/interpretations of the original songs. You may use it for private study, scholarship, research or language learning purposes only